ISO-10303-21;
HEADER;
FILE_DESCRIPTION (( 'STEP AP214' ),
    '1' );
FILE_NAME ('CS6-50.STEP',
    '2019-07-30T16:41:51',
    ( '' ),
    ( '' ),
    'SwSTEP 2.0',
    'SolidWorks 2019',
    '' );
FILE_SCHEMA (( 'AUTOMOTIVE_DESIGN' ));
ENDSEC;

DATA;
#1 = ORIENTED_EDGE ( 'NONE', *, *, #6, .T. ) ;
#2 = PRODUCT_DEFINITION_FORMATION_WITH_SPECIFIED_SOURCE ( 'ANY', '', #55, .NOT_KNOWN. ) ;
#3 = VECTOR ( 'NONE', #133, 39.37007874015748143 ) ;
#4 = AXIS2_PLACEMENT_3D ( 'NONE', #27, #64, #93 ) ;
#5 = ORIENTED_EDGE ( 'NONE', *, *, #22, .T. ) ;
#6 = EDGE_CURVE ( 'NONE', #19, #91, #156, .T. ) ;
#7 = EDGE_LOOP ( 'NONE', ( #49, #170, #169, #197 ) ) ;
#8 = CARTESIAN_POINT ( 'NONE',  ( 300.0000000000000000, -3.000000000000000444, 0.01469999999999999953 ) ) ;
#9 = COLOUR_RGB ( '',0.5372549019607842924, 0.3490196078431372362, 0.3372549019607843368 ) ;
#10 = LINE ( 'NONE', #8, #184 ) ;
#11 = EDGE_CURVE ( 'NONE', #97, #188, #155, .T. ) ;
#12 = SURFACE_SIDE_STYLE ('',( #59 ) ) ;
#13 =( NAMED_UNIT ( * ) PLANE_ANGLE_UNIT ( ) SI_UNIT ( $, .RADIAN. ) );
#14 = CARTESIAN_POINT ( 'NONE',  ( -300.0000000000001137, 3.000000000000000444, 0.01469999999999999953 ) ) ;
#15 = LINE ( 'NONE', #77, #136 ) ;
#16 = ORIENTED_EDGE ( 'NONE', *, *, #30, .T. ) ;
#17 = EDGE_CURVE ( 'NONE', #19, #166, #10, .T. ) ;
#18 = ORIENTED_EDGE ( 'NONE', *, *, #17, .F. ) ;
#19 = VERTEX_POINT ( 'NONE', #189 ) ;
#20 = CARTESIAN_POINT ( 'NONE',  ( 299.9999999999998295, 3.000000000000000444, 0.0000000000000000000 ) ) ;
#21 = AXIS2_PLACEMENT_3D ( 'NONE', #192, #56, #139 ) ;
#22 = EDGE_CURVE ( 'NONE', #35, #52, #142, .T. ) ;
#23 = CARTESIAN_POINT ( 'NONE',  ( 300.0000000000000000, -3.000000000000000444, 0.0000000000000000000 ) ) ;
#24 = CARTESIAN_POINT ( 'NONE',  ( 299.9999999999998295, 3.000000000000000444, 0.01469999999999999953 ) ) ;
#25 = LINE ( 'NONE', #81, #199 ) ;
#26 = PLANE ( 'NONE',  #121 ) ;
#27 = CARTESIAN_POINT ( 'NONE',  ( -300.0000000000001137, -3.000000000000000444, 0.01469999999999999953 ) ) ;
#28 = PRODUCT_DEFINITION_CONTEXT ( 'detailed design', #120, 'design' ) ;
#29 = DIRECTION ( 'NONE',  ( -1.000000000000000000, -0.0000000000000000000, -0.0000000000000000000 ) ) ;
#30 = EDGE_CURVE ( 'NONE', #97, #35, #160, .T. ) ;
#31 = CARTESIAN_POINT ( 'NONE',  ( -300.0000000000001137, -3.000000000000000444, 0.01469999999999999953 ) ) ;
#32 =( LENGTH_UNIT ( ) NAMED_UNIT ( * ) SI_UNIT ( $, .METRE. ) );
#33 = ORIENTED_EDGE ( 'NONE', *, *, #30, .F. ) ;
#34 = VECTOR ( 'NONE', #43, 39.37007874015748143 ) ;
#35 = VERTEX_POINT ( 'NONE', #90 ) ;
#36 = EDGE_LOOP ( 'NONE', ( #1, #75, #16, #85 ) ) ;
#37 = ORIENTED_EDGE ( 'NONE', *, *, #45, .F. ) ;
#38 = DIRECTION ( 'NONE',  ( 0.0000000000000000000, 0.0000000000000000000, -1.000000000000000000 ) ) ;
#39 = FACE_OUTER_BOUND ( 'NONE', #36, .T. ) ;
#40 = ADVANCED_FACE ( 'NONE', ( #203 ), #122, .F. ) ;
#41 = FILL_AREA_STYLE_COLOUR ( '', #108 ) ;
#42 = AXIS2_PLACEMENT_3D ( 'NONE', #68, #150, #172 ) ;
#43 = DIRECTION ( 'NONE',  ( 0.0000000000000000000, 1.000000000000000000, 0.0000000000000000000 ) ) ;
#44 =( CONVERSION_BASED_UNIT ( 'INCH', #158 ) LENGTH_UNIT ( ) NAMED_UNIT ( #194 ) );
#45 = EDGE_CURVE ( 'NONE', #166, #137, #202, .T. ) ;
#46 = FILL_AREA_STYLE ('',( #193 ) ) ;
#47 =( NAMED_UNIT ( * ) PLANE_ANGLE_UNIT ( ) SI_UNIT ( $, .RADIAN. ) );
#48 =( LENGTH_UNIT ( ) NAMED_UNIT ( * ) SI_UNIT ( $, .METRE. ) );
#49 = ORIENTED_EDGE ( 'NONE', *, *, #117, .T. ) ;
#50 = ORIENTED_EDGE ( 'NONE', *, *, #45, .T. ) ;
#51 =( NAMED_UNIT ( * ) SI_UNIT ( $, .STERADIAN. ) SOLID_ANGLE_UNIT ( ) );
#52 = VERTEX_POINT ( 'NONE', #204 ) ;
#53 = EDGE_LOOP ( 'NONE', ( #37, #96, #71, #173 ) ) ;
#54 = CARTESIAN_POINT ( 'NONE',  ( -300.0000000000001137, -3.000000000000000444, 0.01469999999999999953 ) ) ;
#55 = PRODUCT ( 'CS6-50', 'CS6-50', '', ( #135 ) ) ;
#56 = DIRECTION ( 'NONE',  ( -1.000000000000000000, 0.0000000000000000000, 0.0000000000000000000 ) ) ;
#57 = DIRECTION ( 'NONE',  ( 0.0000000000000000000, 0.0000000000000000000, -1.000000000000000000 ) ) ;
#58 = VECTOR ( 'NONE', #29, 39.37007874015748143 ) ;
#59 = SURFACE_STYLE_FILL_AREA ( #143 ) ;
#60 = DIRECTION ( 'NONE',  ( -0.0000000000000000000, -0.0000000000000000000, -1.000000000000000000 ) ) ;
#61 = VECTOR ( 'NONE', #60, 39.37007874015748143 ) ;
#62 = FACE_OUTER_BOUND ( 'NONE', #7, .T. ) ;
#63 = UNCERTAINTY_MEASURE_WITH_UNIT (LENGTH_MEASURE( 1.000000000000000082E-05 ), #94, 'distance_accuracy_value', 'NONE');
#64 = DIRECTION ( 'NONE',  ( 1.000000000000000000, 0.0000000000000000000, 0.0000000000000000000 ) ) ;
#65 = FACE_OUTER_BOUND ( 'NONE', #185, .T. ) ;
#66 = PRESENTATION_STYLE_ASSIGNMENT (( #116 ) ) ;
#67 = SURFACE_SIDE_STYLE ('',( #106 ) ) ;
#68 = CARTESIAN_POINT ( 'NONE',  ( 0.0000000000000000000, 0.0000000000000000000, 0.0000000000000000000 ) ) ;
#69 = ORIENTED_EDGE ( 'NONE', *, *, #107, .T. ) ;
#70 = ADVANCED_FACE ( 'NONE', ( #39 ), #190, .F. ) ;
#71 = ORIENTED_EDGE ( 'NONE', *, *, #111, .F. ) ;
#72 = PRODUCT_DEFINITION_SHAPE ( 'NONE', 'NONE',  #164 ) ;
#73 = DIRECTION ( 'NONE',  ( -0.0000000000000000000, -1.000000000000000000, -0.0000000000000000000 ) ) ;
#74 = PRESENTATION_LAYER_ASSIGNMENT (  '', '', ( #138 ) ) ;
#75 = ORIENTED_EDGE ( 'NONE', *, *, #171, .T. ) ;
#76 = ADVANCED_FACE ( 'NONE', ( #176 ), #191, .T. ) ;
#77 = CARTESIAN_POINT ( 'NONE',  ( -300.0000000000001137, 3.000000000000000444, 0.0000000000000000000 ) ) ;
#78 = LINE ( 'NONE', #162, #3 ) ;
#79 = VECTOR ( 'NONE', #123, 39.37007874015748143 ) ;
#80 = MANIFOLD_SOLID_BREP ( 'Boss-Extrude1', #128 ) ;
#81 = CARTESIAN_POINT ( 'NONE',  ( -300.0000000000001137, -3.000000000000000444, 0.0000000000000000000 ) ) ;
#82 = DIRECTION ( 'NONE',  ( 0.0000000000000000000, -1.000000000000000000, 0.0000000000000000000 ) ) ;
#83 = PLANE ( 'NONE',  #161 ) ;
#84 = ORIENTED_EDGE ( 'NONE', *, *, #148, .F. ) ;
#85 = ORIENTED_EDGE ( 'NONE', *, *, #148, .T. ) ;
#86 = ORIENTED_EDGE ( 'NONE', *, *, #6, .F. ) ;
#87 = UNCERTAINTY_MEASURE_WITH_UNIT (LENGTH_MEASURE( 1.000000000000000082E-05 ), #167, 'distance_accuracy_value', 'NONE');
#88 = CARTESIAN_POINT ( 'NONE',  ( 300.0000000000000000, 3.000000000000000444, 0.01469999999999999953 ) ) ;
#89 = VECTOR ( 'NONE', #140, 39.37007874015748143 ) ;
#90 = CARTESIAN_POINT ( 'NONE',  ( -300.0000000000001137, -3.000000000000000444, 0.01469999999999999953 ) ) ;
#91 = VERTEX_POINT ( 'NONE', #88 ) ;
#92 = CARTESIAN_POINT ( 'NONE',  ( 300.0000000000000000, -3.000000000000000444, 0.01469999999999999953 ) ) ;
#93 = DIRECTION ( 'NONE',  ( 0.0000000000000000000, 0.0000000000000000000, -1.000000000000000000 ) ) ;
#94 =( CONVERSION_BASED_UNIT ( 'INCH', #112 ) LENGTH_UNIT ( ) NAMED_UNIT ( #157 ) );
#95 = CARTESIAN_POINT ( 'NONE',  ( -300.0000000000001137, 3.000000000000000444, 0.01469999999999999953 ) ) ;
#96 = ORIENTED_EDGE ( 'NONE', *, *, #107, .F. ) ;
#97 = VERTEX_POINT ( 'NONE', #14 ) ;
#98 = ORIENTED_EDGE ( 'NONE', *, *, #17, .T. ) ;
#99 = ORIENTED_EDGE ( 'NONE', *, *, #111, .T. ) ;
#100 = MECHANICAL_DESIGN_GEOMETRIC_PRESENTATION_REPRESENTATION (  '', ( #201 ), #129 ) ;
#101 =( NAMED_UNIT ( * ) SI_UNIT ( $, .STERADIAN. ) SOLID_ANGLE_UNIT ( ) );
#102 = DIRECTION ( 'NONE',  ( -1.000000000000000000, 0.0000000000000000000, -0.0000000000000000000 ) ) ;
#103 = SURFACE_STYLE_USAGE ( .BOTH. , #12 ) ;
#104 = CARTESIAN_POINT ( 'NONE',  ( -300.0000000000001137, 3.000000000000000444, 0.01469999999999999953 ) ) ;
#105 = DIMENSIONAL_EXPONENTS ( 1.000000000000000000, 0.0000000000000000000, 0.0000000000000000000, 0.0000000000000000000, 0.0000000000000000000, 0.0000000000000000000, 0.0000000000000000000 ) ;
#106 = SURFACE_STYLE_FILL_AREA ( #46 ) ;
#107 = EDGE_CURVE ( 'NONE', #52, #166, #25, .T. ) ;
#108 = COLOUR_RGB ( '',0.5372549019607842924, 0.3490196078431372362, 0.3372549019607843368 ) ;
#109 = PLANE ( 'NONE',  #4 ) ;
#110 = CARTESIAN_POINT ( 'NONE',  ( 300.0000000000000000, 3.000000000000000444, 0.01469999999999999953 ) ) ;
#111 = EDGE_CURVE ( 'NONE', #188, #52, #78, .T. ) ;
#112 = LENGTH_MEASURE_WITH_UNIT ( LENGTH_MEASURE( 0.02539999999999999897 ), #48 );
#113 = DIRECTION ( 'NONE',  ( 1.000000000000000000, 0.0000000000000000000, 0.0000000000000000000 ) ) ;
#114 = UNCERTAINTY_MEASURE_WITH_UNIT (LENGTH_MEASURE( 1.000000000000000082E-05 ), #44, 'distance_accuracy_value', 'NONE');
#115 = LENGTH_MEASURE_WITH_UNIT ( LENGTH_MEASURE( 0.02539999999999999897 ), #32 );
#116 = SURFACE_STYLE_USAGE ( .BOTH. , #67 ) ;
#117 = EDGE_CURVE ( 'NONE', #137, #188, #15, .T. ) ;
#118 = VECTOR ( 'NONE', #73, 39.37007874015748143 ) ;
#119 = ORIENTED_EDGE ( 'NONE', *, *, #11, .T. ) ;
#120 = APPLICATION_CONTEXT ( 'automotive_design' ) ;
#121 = AXIS2_PLACEMENT_3D ( 'NONE', #95, #82, #130 ) ;
#122 = PLANE ( 'NONE',  #21 ) ;
#123 = DIRECTION ( 'NONE',  ( 0.0000000000000000000, 1.000000000000000000, 0.0000000000000000000 ) ) ;
#124 = CARTESIAN_POINT ( 'NONE',  ( -300.0000000000001137, -3.000000000000000444, 0.01469999999999999953 ) ) ;
#125 = VECTOR ( 'NONE', #113, 39.37007874015748143 ) ;
#126 =( LENGTH_UNIT ( ) NAMED_UNIT ( * ) SI_UNIT ( $, .METRE. ) );
#127 = CARTESIAN_POINT ( 'NONE',  ( 300.0000000000000000, 3.000000000000000444, 0.0000000000000000000 ) ) ;
#128 = CLOSED_SHELL ( 'NONE', ( #40, #210, #141, #186, #70, #76 ) ) ;
#129 =( GEOMETRIC_REPRESENTATION_CONTEXT ( 3 ) GLOBAL_UNCERTAINTY_ASSIGNED_CONTEXT ( ( #87 ) ) GLOBAL_UNIT_ASSIGNED_CONTEXT ( ( #167, #187, #51 ) ) REPRESENTATION_CONTEXT ( 'NONE', 'WORKASPACE' ) );
#130 = DIRECTION ( 'NONE',  ( 0.0000000000000000000, -0.0000000000000000000, -1.000000000000000000 ) ) ;
#131 = CARTESIAN_POINT ( 'NONE',  ( -300.0000000000001137, -3.000000000000000444, 0.01469999999999999953 ) ) ;
#132 = ADVANCED_BREP_SHAPE_REPRESENTATION ( 'CS6-50', ( #80, #42 ), #179 ) ;
#133 = DIRECTION ( 'NONE',  ( -0.0000000000000000000, -1.000000000000000000, -0.0000000000000000000 ) ) ;
#134 = PRODUCT_RELATED_PRODUCT_CATEGORY ( 'part', '', ( #55 ) ) ;
#135 = PRODUCT_CONTEXT ( 'NONE', #175, 'mechanical' ) ;
#136 = VECTOR ( 'NONE', #180, 39.37007874015748143 ) ;
#137 = VERTEX_POINT ( 'NONE', #127 ) ;
#138 = STYLED_ITEM ( 'NONE', ( #205 ), #80 ) ;
#139 = DIRECTION ( 'NONE',  ( 0.0000000000000000000, 0.0000000000000000000, 1.000000000000000000 ) ) ;
#140 = DIRECTION ( 'NONE',  ( -0.0000000000000000000, -0.0000000000000000000, -1.000000000000000000 ) ) ;
#141 = ADVANCED_FACE ( 'NONE', ( #65 ), #109, .F. ) ;
#142 = LINE ( 'NONE', #124, #89 ) ;
#143 = FILL_AREA_STYLE ('',( #41 ) ) ;
#144 = FACE_OUTER_BOUND ( 'NONE', #183, .T. ) ;
#145 = LINE ( 'NONE', #181, #58 ) ;
#146 =( GEOMETRIC_REPRESENTATION_CONTEXT ( 3 ) GLOBAL_UNCERTAINTY_ASSIGNED_CONTEXT ( ( #114 ) ) GLOBAL_UNIT_ASSIGNED_CONTEXT ( ( #44, #13, #101 ) ) REPRESENTATION_CONTEXT ( 'NONE', 'WORKASPACE' ) );
#147 = LINE ( 'NONE', #110, #153 ) ;
#148 = EDGE_CURVE ( 'NONE', #35, #19, #163, .T. ) ;
#149 = DIRECTION ( 'NONE',  ( 0.0000000000000000000, 1.000000000000000000, 0.0000000000000000000 ) ) ;
#150 = DIRECTION ( 'NONE',  ( 0.0000000000000000000, 0.0000000000000000000, 1.000000000000000000 ) ) ;
#151 = ORIENTED_EDGE ( 'NONE', *, *, #22, .F. ) ;
#152 = EDGE_CURVE ( 'NONE', #91, #137, #147, .T. ) ;
#153 = VECTOR ( 'NONE', #178, 39.37007874015748143 ) ;
#154 = PRESENTATION_LAYER_ASSIGNMENT (  '', '', ( #201 ) ) ;
#155 = LINE ( 'NONE', #104, #61 ) ;
#156 = LINE ( 'NONE', #92, #34 ) ;
#157 = DIMENSIONAL_EXPONENTS ( 1.000000000000000000, 0.0000000000000000000, 0.0000000000000000000, 0.0000000000000000000, 0.0000000000000000000, 0.0000000000000000000, 0.0000000000000000000 ) ;
#158 = LENGTH_MEASURE_WITH_UNIT ( LENGTH_MEASURE( 0.02539999999999999897 ), #126 );
#159 = DIRECTION ( 'NONE',  ( -1.000000000000000000, 0.0000000000000000000, -0.0000000000000000000 ) ) ;
#160 = LINE ( 'NONE', #54, #118 ) ;
#161 = AXIS2_PLACEMENT_3D ( 'NONE', #131, #149, #206 ) ;
#162 = CARTESIAN_POINT ( 'NONE',  ( -300.0000000000001137, -3.000000000000000444, 0.0000000000000000000 ) ) ;
#163 = LINE ( 'NONE', #31, #125 ) ;
#164 = PRODUCT_DEFINITION ( 'UNKNOWN', '', #2, #28 ) ;
#165 = AXIS2_PLACEMENT_3D ( 'NONE', #20, #38, #159 ) ;
#166 = VERTEX_POINT ( 'NONE', #209 ) ;
#167 =( CONVERSION_BASED_UNIT ( 'INCH', #115 ) LENGTH_UNIT ( ) NAMED_UNIT ( #105 ) );
#168 = EDGE_LOOP ( 'NONE', ( #50, #174, #86, #98 ) ) ;
#169 = ORIENTED_EDGE ( 'NONE', *, *, #171, .F. ) ;
#170 = ORIENTED_EDGE ( 'NONE', *, *, #11, .F. ) ;
#171 = EDGE_CURVE ( 'NONE', #91, #97, #145, .T. ) ;
#172 = DIRECTION ( 'NONE',  ( 1.000000000000000000, 0.0000000000000000000, 0.0000000000000000000 ) ) ;
#173 = ORIENTED_EDGE ( 'NONE', *, *, #117, .F. ) ;
#174 = ORIENTED_EDGE ( 'NONE', *, *, #152, .F. ) ;
#175 = APPLICATION_CONTEXT ( 'automotive_design' ) ;
#176 = FACE_OUTER_BOUND ( 'NONE', #53, .T. ) ;
#177 = DIRECTION ( 'NONE',  ( -0.0000000000000000000, -0.0000000000000000000, -1.000000000000000000 ) ) ;
#178 = DIRECTION ( 'NONE',  ( -0.0000000000000000000, -0.0000000000000000000, -1.000000000000000000 ) ) ;
#179 =( GEOMETRIC_REPRESENTATION_CONTEXT ( 3 ) GLOBAL_UNCERTAINTY_ASSIGNED_CONTEXT ( ( #63 ) ) GLOBAL_UNIT_ASSIGNED_CONTEXT ( ( #94, #47, #195 ) ) REPRESENTATION_CONTEXT ( 'NONE', 'WORKASPACE' ) );
#180 = DIRECTION ( 'NONE',  ( -1.000000000000000000, -0.0000000000000000000, -0.0000000000000000000 ) ) ;
#181 = CARTESIAN_POINT ( 'NONE',  ( -300.0000000000001137, 3.000000000000000444, 0.01469999999999999953 ) ) ;
#182 = APPLICATION_PROTOCOL_DEFINITION ( 'draft international standard', 'automotive_design', 1998, #175 ) ;
#183 = EDGE_LOOP ( 'NONE', ( #69, #18, #84, #5 ) ) ;
#184 = VECTOR ( 'NONE', #177, 39.37007874015748143 ) ;
#185 = EDGE_LOOP ( 'NONE', ( #99, #151, #33, #119 ) ) ;
#186 = ADVANCED_FACE ( 'NONE', ( #144 ), #83, .F. ) ;
#187 =( NAMED_UNIT ( * ) PLANE_ANGLE_UNIT ( ) SI_UNIT ( $, .RADIAN. ) );
#188 = VERTEX_POINT ( 'NONE', #207 ) ;
#189 = CARTESIAN_POINT ( 'NONE',  ( 300.0000000000000000, -3.000000000000000444, 0.01469999999999999953 ) ) ;
#190 = PLANE ( 'NONE',  #198 ) ;
#191 = PLANE ( 'NONE',  #165 ) ;
#192 = CARTESIAN_POINT ( 'NONE',  ( 300.0000000000000000, -3.000000000000000444, 0.01469999999999999953 ) ) ;
#193 = FILL_AREA_STYLE_COLOUR ( '', #9 ) ;
#194 = DIMENSIONAL_EXPONENTS ( 1.000000000000000000, 0.0000000000000000000, 0.0000000000000000000, 0.0000000000000000000, 0.0000000000000000000, 0.0000000000000000000, 0.0000000000000000000 ) ;
#195 =( NAMED_UNIT ( * ) SI_UNIT ( $, .STERADIAN. ) SOLID_ANGLE_UNIT ( ) );
#196 = APPLICATION_PROTOCOL_DEFINITION ( 'draft international standard', 'automotive_design', 1998, #120 ) ;
#197 = ORIENTED_EDGE ( 'NONE', *, *, #152, .T. ) ;
#198 = AXIS2_PLACEMENT_3D ( 'NONE', #24, #57, #102 ) ;
#199 = VECTOR ( 'NONE', #211, 39.37007874015748143 ) ;
#200 = SHAPE_DEFINITION_REPRESENTATION ( #72, #132 ) ;
#201 = STYLED_ITEM ( 'NONE', ( #66 ), #132 ) ;
#202 = LINE ( 'NONE', #23, #79 ) ;
#203 = FACE_OUTER_BOUND ( 'NONE', #168, .T. ) ;
#204 = CARTESIAN_POINT ( 'NONE',  ( -300.0000000000001137, -3.000000000000000444, 0.0000000000000000000 ) ) ;
#205 = PRESENTATION_STYLE_ASSIGNMENT (( #103 ) ) ;
#206 = DIRECTION ( 'NONE',  ( 0.0000000000000000000, -0.0000000000000000000, 1.000000000000000000 ) ) ;
#207 = CARTESIAN_POINT ( 'NONE',  ( -300.0000000000001137, 3.000000000000000444, 0.0000000000000000000 ) ) ;
#208 = MECHANICAL_DESIGN_GEOMETRIC_PRESENTATION_REPRESENTATION (  '', ( #138 ), #146 ) ;
#209 = CARTESIAN_POINT ( 'NONE',  ( 300.0000000000000000, -3.000000000000000444, 0.0000000000000000000 ) ) ;
#210 = ADVANCED_FACE ( 'NONE', ( #62 ), #26, .F. ) ;
#211 = DIRECTION ( 'NONE',  ( 1.000000000000000000, 0.0000000000000000000, 0.0000000000000000000 ) ) ;
ENDSEC;
END-ISO-10303-21;
