ISO-10303-21;
HEADER;
FILE_DESCRIPTION (( 'STEP AP214' ),
    '1' );
FILE_NAME ('CS6-25.STEP',
    '2019-07-30T16:40:31',
    ( '' ),
    ( '' ),
    'SwSTEP 2.0',
    'SolidWorks 2019',
    '' );
FILE_SCHEMA (( 'AUTOMOTIVE_DESIGN' ));
ENDSEC;

DATA;
#1 = PRODUCT_CONTEXT ( 'NONE', #102, 'mechanical' ) ;
#2 = ORIENTED_EDGE ( 'NONE', *, *, #103, .F. ) ;
#3 = PRESENTATION_LAYER_ASSIGNMENT (  '', '', ( #99 ) ) ;
#4 = AXIS2_PLACEMENT_3D ( 'NONE', #46, #113, #177 ) ;
#5 = SURFACE_STYLE_USAGE ( .BOTH. , #155 ) ;
#6 = LINE ( 'NONE', #187, #119 ) ;
#7 = PRODUCT_DEFINITION ( 'UNKNOWN', '', #23, #77 ) ;
#8 = SURFACE_STYLE_FILL_AREA ( #97 ) ;
#9 = CARTESIAN_POINT ( 'NONE',  ( 150.0000000000000284, 2.999999999999999556, 0.01469999999999999953 ) ) ;
#10 = PRESENTATION_STYLE_ASSIGNMENT (( #98 ) ) ;
#11 =( CONVERSION_BASED_UNIT ( 'INCH', #164 ) LENGTH_UNIT ( ) NAMED_UNIT ( #20 ) );
#12 = FILL_AREA_STYLE ('',( #90 ) ) ;
#13 = SHAPE_DEFINITION_REPRESENTATION ( #83, #89 ) ;
#14 = EDGE_LOOP ( 'NONE', ( #203, #35, #206, #202 ) ) ;
#15 = CLOSED_SHELL ( 'NONE', ( #142, #105, #197, #39, #192, #208 ) ) ;
#16 =( NAMED_UNIT ( * ) PLANE_ANGLE_UNIT ( ) SI_UNIT ( $, .RADIAN. ) );
#17 = ORIENTED_EDGE ( 'NONE', *, *, #178, .F. ) ;
#18 = DIRECTION ( 'NONE',  ( 1.000000000000000000, 0.0000000000000000000, 0.0000000000000000000 ) ) ;
#19 = EDGE_CURVE ( 'NONE', #135, #52, #173, .T. ) ;
#20 = DIMENSIONAL_EXPONENTS ( 1.000000000000000000, 0.0000000000000000000, 0.0000000000000000000, 0.0000000000000000000, 0.0000000000000000000, 0.0000000000000000000, 0.0000000000000000000 ) ;
#21 = VERTEX_POINT ( 'NONE', #124 ) ;
#22 = LINE ( 'NONE', #91, #174 ) ;
#23 = PRODUCT_DEFINITION_FORMATION_WITH_SPECIFIED_SOURCE ( 'ANY', '', #38, .NOT_KNOWN. ) ;
#24 = DIRECTION ( 'NONE',  ( -0.0000000000000000000, -0.0000000000000000000, -1.000000000000000000 ) ) ;
#25 = EDGE_CURVE ( 'NONE', #57, #135, #58, .T. ) ;
#26 = FACE_OUTER_BOUND ( 'NONE', #53, .T. ) ;
#27 = DIRECTION ( 'NONE',  ( 0.0000000000000000000, 1.000000000000000000, 0.0000000000000000000 ) ) ;
#28 = MECHANICAL_DESIGN_GEOMETRIC_PRESENTATION_REPRESENTATION (  '', ( #99 ), #50 ) ;
#29 = STYLED_ITEM ( 'NONE', ( #183 ), #89 ) ;
#30 = VECTOR ( 'NONE', #27, 39.37007874015748143 ) ;
#31 = PLANE ( 'NONE',  #4 ) ;
#32 = EDGE_CURVE ( 'NONE', #52, #21, #143, .T. ) ;
#33 = AXIS2_PLACEMENT_3D ( 'NONE', #56, #169, #37 ) ;
#34 =( NAMED_UNIT ( * ) PLANE_ANGLE_UNIT ( ) SI_UNIT ( $, .RADIAN. ) );
#35 = ORIENTED_EDGE ( 'NONE', *, *, #158, .F. ) ;
#36 = ORIENTED_EDGE ( 'NONE', *, *, #48, .T. ) ;
#37 = DIRECTION ( 'NONE',  ( 1.000000000000000000, 0.0000000000000000000, 0.0000000000000000000 ) ) ;
#38 = PRODUCT ( 'CS6-25', 'CS6-25', '', ( #1 ) ) ;
#39 = ADVANCED_FACE ( 'NONE', ( #160 ), #74, .F. ) ;
#40 = CARTESIAN_POINT ( 'NONE',  ( -150.0000000000000000, -3.000000000000000888, 0.0000000000000000000 ) ) ;
#41 = EDGE_CURVE ( 'NONE', #135, #62, #6, .T. ) ;
#42 = ORIENTED_EDGE ( 'NONE', *, *, #48, .F. ) ;
#43 = UNCERTAINTY_MEASURE_WITH_UNIT (LENGTH_MEASURE( 1.000000000000000082E-05 ), #137, 'distance_accuracy_value', 'NONE');
#44 = ORIENTED_EDGE ( 'NONE', *, *, #25, .F. ) ;
#45 = CARTESIAN_POINT ( 'NONE',  ( 149.9999999999999716, 2.999999999999999556, 0.0000000000000000000 ) ) ;
#46 = CARTESIAN_POINT ( 'NONE',  ( 149.9999999999999716, 2.999999999999999556, 0.01469999999999999953 ) ) ;
#47 = LINE ( 'NONE', #176, #139 ) ;
#48 = EDGE_CURVE ( 'NONE', #62, #55, #22, .T. ) ;
#49 = CARTESIAN_POINT ( 'NONE',  ( -150.0000000000000000, 2.999999999999999556, 0.0000000000000000000 ) ) ;
#50 =( GEOMETRIC_REPRESENTATION_CONTEXT ( 3 ) GLOBAL_UNCERTAINTY_ASSIGNED_CONTEXT ( ( #163 ) ) GLOBAL_UNIT_ASSIGNED_CONTEXT ( ( #11, #67, #195 ) ) REPRESENTATION_CONTEXT ( 'NONE', 'WORKASPACE' ) );
#51 = SURFACE_SIDE_STYLE ('',( #8 ) ) ;
#52 = VERTEX_POINT ( 'NONE', #95 ) ;
#53 = EDGE_LOOP ( 'NONE', ( #85, #181, #44, #121 ) ) ;
#54 = APPLICATION_PROTOCOL_DEFINITION ( 'draft international standard', 'automotive_design', 1998, #79 ) ;
#55 = VERTEX_POINT ( 'NONE', #161 ) ;
#56 = CARTESIAN_POINT ( 'NONE',  ( 0.0000000000000000000, 0.0000000000000000000, 0.0000000000000000000 ) ) ;
#57 = VERTEX_POINT ( 'NONE', #60 ) ;
#58 = LINE ( 'NONE', #111, #182 ) ;
#59 = CARTESIAN_POINT ( 'NONE',  ( 150.0000000000000284, -3.000000000000000888, 0.01469999999999999953 ) ) ;
#60 = CARTESIAN_POINT ( 'NONE',  ( -150.0000000000000000, 2.999999999999999556, 0.01469999999999999953 ) ) ;
#61 = VECTOR ( 'NONE', #116, 39.37007874015748143 ) ;
#62 = VERTEX_POINT ( 'NONE', #40 ) ;
#63 = LINE ( 'NONE', #146, #209 ) ;
#64 = LINE ( 'NONE', #9, #133 ) ;
#65 = DIRECTION ( 'NONE',  ( -0.0000000000000000000, -1.000000000000000000, -0.0000000000000000000 ) ) ;
#66 = FACE_OUTER_BOUND ( 'NONE', #14, .T. ) ;
#67 =( NAMED_UNIT ( * ) PLANE_ANGLE_UNIT ( ) SI_UNIT ( $, .RADIAN. ) );
#68 = LINE ( 'NONE', #100, #30 ) ;
#69 = EDGE_CURVE ( 'NONE', #52, #55, #141, .T. ) ;
#70 = VECTOR ( 'NONE', #122, 39.37007874015748143 ) ;
#71 = AXIS2_PLACEMENT_3D ( 'NONE', #147, #132, #196 ) ;
#72 = VERTEX_POINT ( 'NONE', #76 ) ;
#73 = DIRECTION ( 'NONE',  ( -0.0000000000000000000, -0.0000000000000000000, -1.000000000000000000 ) ) ;
#74 = PLANE ( 'NONE',  #92 ) ;
#75 = MECHANICAL_DESIGN_GEOMETRIC_PRESENTATION_REPRESENTATION (  '', ( #29 ), #82 ) ;
#76 = CARTESIAN_POINT ( 'NONE',  ( 150.0000000000000284, 2.999999999999999556, 0.0000000000000000000 ) ) ;
#77 = PRODUCT_DEFINITION_CONTEXT ( 'detailed design', #79, 'design' ) ;
#78 = CARTESIAN_POINT ( 'NONE',  ( -150.0000000000000000, -3.000000000000000888, 0.01469999999999999953 ) ) ;
#79 = APPLICATION_CONTEXT ( 'automotive_design' ) ;
#80 = MANIFOLD_SOLID_BREP ( 'Boss-Extrude1', #15 ) ;
#81 = DIRECTION ( 'NONE',  ( -0.0000000000000000000, -0.0000000000000000000, -1.000000000000000000 ) ) ;
#82 =( GEOMETRIC_REPRESENTATION_CONTEXT ( 3 ) GLOBAL_UNCERTAINTY_ASSIGNED_CONTEXT ( ( #145 ) ) GLOBAL_UNIT_ASSIGNED_CONTEXT ( ( #136, #34, #84 ) ) REPRESENTATION_CONTEXT ( 'NONE', 'WORKASPACE' ) );
#83 = PRODUCT_DEFINITION_SHAPE ( 'NONE', 'NONE',  #7 ) ;
#84 =( NAMED_UNIT ( * ) SI_UNIT ( $, .STERADIAN. ) SOLID_ANGLE_UNIT ( ) );
#85 = ORIENTED_EDGE ( 'NONE', *, *, #86, .T. ) ;
#86 = EDGE_CURVE ( 'NONE', #120, #62, #63, .T. ) ;
#87 = DIRECTION ( 'NONE',  ( 0.0000000000000000000, 0.0000000000000000000, -1.000000000000000000 ) ) ;
#88 = ORIENTED_EDGE ( 'NONE', *, *, #69, .F. ) ;
#89 = ADVANCED_BREP_SHAPE_REPRESENTATION ( 'CS6-25', ( #80, #33 ), #171 ) ;
#90 = FILL_AREA_STYLE_COLOUR ( '', #126 ) ;
#91 = CARTESIAN_POINT ( 'NONE',  ( -150.0000000000000000, -3.000000000000000888, 0.0000000000000000000 ) ) ;
#92 = AXIS2_PLACEMENT_3D ( 'NONE', #205, #144, #94 ) ;
#93 = PRESENTATION_LAYER_ASSIGNMENT (  '', '', ( #29 ) ) ;
#94 = DIRECTION ( 'NONE',  ( 0.0000000000000000000, -0.0000000000000000000, 1.000000000000000000 ) ) ;
#95 = CARTESIAN_POINT ( 'NONE',  ( 150.0000000000000284, -3.000000000000000888, 0.01469999999999999953 ) ) ;
#96 = FACE_OUTER_BOUND ( 'NONE', #186, .T. ) ;
#97 = FILL_AREA_STYLE ('',( #166 ) ) ;
#98 = SURFACE_STYLE_USAGE ( .BOTH. , #51 ) ;
#99 = STYLED_ITEM ( 'NONE', ( #10 ), #80 ) ;
#100 = CARTESIAN_POINT ( 'NONE',  ( 150.0000000000000284, -3.000000000000000888, 0.0000000000000000000 ) ) ;
#101 = DIRECTION ( 'NONE',  ( 1.000000000000000000, 0.0000000000000000000, 0.0000000000000000000 ) ) ;
#102 = APPLICATION_CONTEXT ( 'automotive_design' ) ;
#103 = EDGE_CURVE ( 'NONE', #72, #120, #148, .T. ) ;
#104 = DIRECTION ( 'NONE',  ( -1.000000000000000000, 0.0000000000000000000, -0.0000000000000000000 ) ) ;
#105 = ADVANCED_FACE ( 'NONE', ( #134 ), #149, .F. ) ;
#106 = EDGE_LOOP ( 'NONE', ( #152, #153, #138, #140 ) ) ;
#107 = DIMENSIONAL_EXPONENTS ( 1.000000000000000000, 0.0000000000000000000, 0.0000000000000000000, 0.0000000000000000000, 0.0000000000000000000, 0.0000000000000000000, 0.0000000000000000000 ) ;
#108 = VECTOR ( 'NONE', #73, 39.37007874015748143 ) ;
#109 = ORIENTED_EDGE ( 'NONE', *, *, #86, .F. ) ;
#110 = CARTESIAN_POINT ( 'NONE',  ( -150.0000000000000000, -3.000000000000000888, 0.01469999999999999953 ) ) ;
#111 = CARTESIAN_POINT ( 'NONE',  ( -150.0000000000000000, -3.000000000000000888, 0.01469999999999999953 ) ) ;
#112 = CARTESIAN_POINT ( 'NONE',  ( -150.0000000000000000, 2.999999999999999556, 0.0000000000000000000 ) ) ;
#113 = DIRECTION ( 'NONE',  ( 0.0000000000000000000, 0.0000000000000000000, -1.000000000000000000 ) ) ;
#114 = CARTESIAN_POINT ( 'NONE',  ( -150.0000000000000000, -3.000000000000000888, 0.01469999999999999953 ) ) ;
#115 = LINE ( 'NONE', #128, #61 ) ;
#116 = DIRECTION ( 'NONE',  ( -1.000000000000000000, -0.0000000000000000000, -0.0000000000000000000 ) ) ;
#117 =( LENGTH_UNIT ( ) NAMED_UNIT ( * ) SI_UNIT ( $, .METRE. ) );
#118 = SURFACE_STYLE_FILL_AREA ( #12 ) ;
#119 = VECTOR ( 'NONE', #175, 39.37007874015748143 ) ;
#120 = VERTEX_POINT ( 'NONE', #49 ) ;
#121 = ORIENTED_EDGE ( 'NONE', *, *, #125, .T. ) ;
#122 = DIRECTION ( 'NONE',  ( 0.0000000000000000000, 1.000000000000000000, 0.0000000000000000000 ) ) ;
#123 = DIMENSIONAL_EXPONENTS ( 1.000000000000000000, 0.0000000000000000000, 0.0000000000000000000, 0.0000000000000000000, 0.0000000000000000000, 0.0000000000000000000, 0.0000000000000000000 ) ;
#124 = CARTESIAN_POINT ( 'NONE',  ( 150.0000000000000284, 2.999999999999999556, 0.01469999999999999953 ) ) ;
#125 = EDGE_CURVE ( 'NONE', #57, #120, #47, .T. ) ;
#126 = COLOUR_RGB ( '',0.5372549019607842924, 0.3490196078431372362, 0.3372549019607843368 ) ;
#127 = CARTESIAN_POINT ( 'NONE',  ( 150.0000000000000284, -3.000000000000000888, 0.01469999999999999953 ) ) ;
#128 = CARTESIAN_POINT ( 'NONE',  ( -150.0000000000000000, 2.999999999999999556, 0.01469999999999999953 ) ) ;
#129 = AXIS2_PLACEMENT_3D ( 'NONE', #179, #194, #207 ) ;
#130 = DIRECTION ( 'NONE',  ( -1.000000000000000000, -0.0000000000000000000, -0.0000000000000000000 ) ) ;
#131 = PLANE ( 'NONE',  #71 ) ;
#132 = DIRECTION ( 'NONE',  ( -1.000000000000000000, 0.0000000000000000000, 0.0000000000000000000 ) ) ;
#133 = VECTOR ( 'NONE', #81, 39.37007874015748143 ) ;
#134 = FACE_OUTER_BOUND ( 'NONE', #184, .T. ) ;
#135 = VERTEX_POINT ( 'NONE', #78 ) ;
#136 =( CONVERSION_BASED_UNIT ( 'INCH', #180 ) LENGTH_UNIT ( ) NAMED_UNIT ( #123 ) );
#137 =( CONVERSION_BASED_UNIT ( 'INCH', #167 ) LENGTH_UNIT ( ) NAMED_UNIT ( #107 ) );
#138 = ORIENTED_EDGE ( 'NONE', *, *, #25, .T. ) ;
#139 = VECTOR ( 'NONE', #24, 39.37007874015748143 ) ;
#140 = ORIENTED_EDGE ( 'NONE', *, *, #19, .T. ) ;
#141 = LINE ( 'NONE', #59, #108 ) ;
#142 = ADVANCED_FACE ( 'NONE', ( #66 ), #131, .F. ) ;
#143 = LINE ( 'NONE', #127, #70 ) ;
#144 = DIRECTION ( 'NONE',  ( 0.0000000000000000000, 1.000000000000000000, 0.0000000000000000000 ) ) ;
#145 = UNCERTAINTY_MEASURE_WITH_UNIT (LENGTH_MEASURE( 1.000000000000000082E-05 ), #136, 'distance_accuracy_value', 'NONE');
#146 = CARTESIAN_POINT ( 'NONE',  ( -150.0000000000000000, -3.000000000000000888, 0.0000000000000000000 ) ) ;
#147 = CARTESIAN_POINT ( 'NONE',  ( 150.0000000000000284, -3.000000000000000888, 0.01469999999999999953 ) ) ;
#148 = LINE ( 'NONE', #112, #185 ) ;
#149 = PLANE ( 'NONE',  #129 ) ;
#150 = DIRECTION ( 'NONE',  ( 0.0000000000000000000, 0.0000000000000000000, -1.000000000000000000 ) ) ;
#151 =( NAMED_UNIT ( * ) SI_UNIT ( $, .STERADIAN. ) SOLID_ANGLE_UNIT ( ) );
#152 = ORIENTED_EDGE ( 'NONE', *, *, #32, .T. ) ;
#153 = ORIENTED_EDGE ( 'NONE', *, *, #178, .T. ) ;
#154 = EDGE_LOOP ( 'NONE', ( #36, #88, #190, #198 ) ) ;
#155 = SURFACE_SIDE_STYLE ('',( #118 ) ) ;
#156 = ORIENTED_EDGE ( 'NONE', *, *, #158, .T. ) ;
#157 = DIRECTION ( 'NONE',  ( 1.000000000000000000, 0.0000000000000000000, 0.0000000000000000000 ) ) ;
#158 = EDGE_CURVE ( 'NONE', #21, #72, #64, .T. ) ;
#159 = ORIENTED_EDGE ( 'NONE', *, *, #125, .F. ) ;
#160 = FACE_OUTER_BOUND ( 'NONE', #154, .T. ) ;
#161 = CARTESIAN_POINT ( 'NONE',  ( 150.0000000000000284, -3.000000000000000888, 0.0000000000000000000 ) ) ;
#162 = PLANE ( 'NONE',  #199 ) ;
#163 = UNCERTAINTY_MEASURE_WITH_UNIT (LENGTH_MEASURE( 1.000000000000000082E-05 ), #11, 'distance_accuracy_value', 'NONE');
#164 = LENGTH_MEASURE_WITH_UNIT ( LENGTH_MEASURE( 0.02539999999999999897 ), #210 );
#165 = COLOUR_RGB ( '',0.5372549019607842924, 0.3490196078431372362, 0.3372549019607843368 ) ;
#166 = FILL_AREA_STYLE_COLOUR ( '', #165 ) ;
#167 = LENGTH_MEASURE_WITH_UNIT ( LENGTH_MEASURE( 0.02539999999999999897 ), #170 );
#168 = ORIENTED_EDGE ( 'NONE', *, *, #103, .T. ) ;
#169 = DIRECTION ( 'NONE',  ( 0.0000000000000000000, 0.0000000000000000000, 1.000000000000000000 ) ) ;
#170 =( LENGTH_UNIT ( ) NAMED_UNIT ( * ) SI_UNIT ( $, .METRE. ) );
#171 =( GEOMETRIC_REPRESENTATION_CONTEXT ( 3 ) GLOBAL_UNCERTAINTY_ASSIGNED_CONTEXT ( ( #43 ) ) GLOBAL_UNIT_ASSIGNED_CONTEXT ( ( #137, #16, #151 ) ) REPRESENTATION_CONTEXT ( 'NONE', 'WORKASPACE' ) );
#172 = PRODUCT_RELATED_PRODUCT_CATEGORY ( 'part', '', ( #38 ) ) ;
#173 = LINE ( 'NONE', #110, #189 ) ;
#174 = VECTOR ( 'NONE', #157, 39.37007874015748143 ) ;
#175 = DIRECTION ( 'NONE',  ( -0.0000000000000000000, -0.0000000000000000000, -1.000000000000000000 ) ) ;
#176 = CARTESIAN_POINT ( 'NONE',  ( -150.0000000000000000, 2.999999999999999556, 0.01469999999999999953 ) ) ;
#177 = DIRECTION ( 'NONE',  ( -1.000000000000000000, 0.0000000000000000000, -0.0000000000000000000 ) ) ;
#178 = EDGE_CURVE ( 'NONE', #21, #57, #115, .T. ) ;
#179 = CARTESIAN_POINT ( 'NONE',  ( -150.0000000000000000, 2.999999999999999556, 0.01469999999999999953 ) ) ;
#180 = LENGTH_MEASURE_WITH_UNIT ( LENGTH_MEASURE( 0.02539999999999999897 ), #117 );
#181 = ORIENTED_EDGE ( 'NONE', *, *, #41, .F. ) ;
#182 = VECTOR ( 'NONE', #188, 39.37007874015748143 ) ;
#183 = PRESENTATION_STYLE_ASSIGNMENT (( #5 ) ) ;
#184 = EDGE_LOOP ( 'NONE', ( #168, #159, #17, #156 ) ) ;
#185 = VECTOR ( 'NONE', #130, 39.37007874015748143 ) ;
#186 = EDGE_LOOP ( 'NONE', ( #204, #42, #109, #2 ) ) ;
#187 = CARTESIAN_POINT ( 'NONE',  ( -150.0000000000000000, -3.000000000000000888, 0.01469999999999999953 ) ) ;
#188 = DIRECTION ( 'NONE',  ( -0.0000000000000000000, -1.000000000000000000, -0.0000000000000000000 ) ) ;
#189 = VECTOR ( 'NONE', #18, 39.37007874015748143 ) ;
#190 = ORIENTED_EDGE ( 'NONE', *, *, #19, .F. ) ;
#191 = PLANE ( 'NONE',  #211 ) ;
#192 = ADVANCED_FACE ( 'NONE', ( #193 ), #31, .F. ) ;
#193 = FACE_OUTER_BOUND ( 'NONE', #106, .T. ) ;
#194 = DIRECTION ( 'NONE',  ( 0.0000000000000000000, -1.000000000000000000, 0.0000000000000000000 ) ) ;
#195 =( NAMED_UNIT ( * ) SI_UNIT ( $, .STERADIAN. ) SOLID_ANGLE_UNIT ( ) );
#196 = DIRECTION ( 'NONE',  ( 0.0000000000000000000, 0.0000000000000000000, 1.000000000000000000 ) ) ;
#197 = ADVANCED_FACE ( 'NONE', ( #26 ), #191, .F. ) ;
#198 = ORIENTED_EDGE ( 'NONE', *, *, #41, .T. ) ;
#199 = AXIS2_PLACEMENT_3D ( 'NONE', #45, #87, #104 ) ;
#200 = APPLICATION_PROTOCOL_DEFINITION ( 'draft international standard', 'automotive_design', 1998, #102 ) ;
#201 = EDGE_CURVE ( 'NONE', #55, #72, #68, .T. ) ;
#202 = ORIENTED_EDGE ( 'NONE', *, *, #69, .T. ) ;
#203 = ORIENTED_EDGE ( 'NONE', *, *, #201, .T. ) ;
#204 = ORIENTED_EDGE ( 'NONE', *, *, #201, .F. ) ;
#205 = CARTESIAN_POINT ( 'NONE',  ( -150.0000000000000000, -3.000000000000000888, 0.01469999999999999953 ) ) ;
#206 = ORIENTED_EDGE ( 'NONE', *, *, #32, .F. ) ;
#207 = DIRECTION ( 'NONE',  ( 0.0000000000000000000, -0.0000000000000000000, -1.000000000000000000 ) ) ;
#208 = ADVANCED_FACE ( 'NONE', ( #96 ), #162, .T. ) ;
#209 = VECTOR ( 'NONE', #65, 39.37007874015748143 ) ;
#210 =( LENGTH_UNIT ( ) NAMED_UNIT ( * ) SI_UNIT ( $, .METRE. ) );
#211 = AXIS2_PLACEMENT_3D ( 'NONE', #114, #101, #150 ) ;
ENDSEC;
END-ISO-10303-21;
