ISO-10303-21;
HEADER;
FILE_DESCRIPTION (( 'STEP AP214' ),
    '1' );
FILE_NAME ('CS3-50.STEP',
    '2019-07-30T16:39:13',
    ( '' ),
    ( '' ),
    'SwSTEP 2.0',
    'SolidWorks 2019',
    '' );
FILE_SCHEMA (( 'AUTOMOTIVE_DESIGN' ));
ENDSEC;

DATA;
#1 =( LENGTH_UNIT ( ) NAMED_UNIT ( * ) SI_UNIT ( $, .METRE. ) );
#2 = EDGE_CURVE ( 'NONE', #67, #20, #51, .T. ) ;
#3 = ORIENTED_EDGE ( 'NONE', *, *, #182, .F. ) ;
#4 = ORIENTED_EDGE ( 'NONE', *, *, #156, .F. ) ;
#5 = PRODUCT_CONTEXT ( 'NONE', #29, 'mechanical' ) ;
#6 = AXIS2_PLACEMENT_3D ( 'NONE', #77, #129, #55 ) ;
#7 = EDGE_LOOP ( 'NONE', ( #141, #35, #52, #176 ) ) ;
#8 = VERTEX_POINT ( 'NONE', #54 ) ;
#9 = PLANE ( 'NONE',  #186 ) ;
#10 = AXIS2_PLACEMENT_3D ( 'NONE', #131, #66, #154 ) ;
#11 = DIRECTION ( 'NONE',  ( 0.0000000000000000000, 1.000000000000000000, 0.0000000000000000000 ) ) ;
#12 = DIRECTION ( 'NONE',  ( -1.000000000000000000, -0.0000000000000000000, -0.0000000000000000000 ) ) ;
#13 = EDGE_CURVE ( 'NONE', #71, #20, #210, .T. ) ;
#14 = LINE ( 'NONE', #148, #201 ) ;
#15 = PRESENTATION_LAYER_ASSIGNMENT (  '', '', ( #161 ) ) ;
#16 = PRODUCT_DEFINITION_SHAPE ( 'NONE', 'NONE',  #150 ) ;
#17 = DIRECTION ( 'NONE',  ( -1.000000000000000000, 0.0000000000000000000, 0.0000000000000000000 ) ) ;
#18 = CARTESIAN_POINT ( 'NONE',  ( 300.0000000000000000, -1.500000000000000222, 0.01469999999999999953 ) ) ;
#19 = COLOUR_RGB ( '',0.5372549019607842924, 0.3490196078431372362, 0.3372549019607843368 ) ;
#20 = VERTEX_POINT ( 'NONE', #59 ) ;
#21 = LINE ( 'NONE', #68, #192 ) ;
#22 = ORIENTED_EDGE ( 'NONE', *, *, #58, .T. ) ;
#23 = ORIENTED_EDGE ( 'NONE', *, *, #182, .T. ) ;
#24 = AXIS2_PLACEMENT_3D ( 'NONE', #206, #189, #126 ) ;
#25 = VECTOR ( 'NONE', #209, 39.37007874015748143 ) ;
#26 = SURFACE_SIDE_STYLE ('',( #112 ) ) ;
#27 = DIRECTION ( 'NONE',  ( -1.000000000000000000, 0.0000000000000000000, -0.0000000000000000000 ) ) ;
#28 = LINE ( 'NONE', #181, #151 ) ;
#29 = APPLICATION_CONTEXT ( 'automotive_design' ) ;
#30 = DIRECTION ( 'NONE',  ( -0.0000000000000000000, -0.0000000000000000000, -1.000000000000000000 ) ) ;
#31 = CARTESIAN_POINT ( 'NONE',  ( -300.0000000000001137, -1.500000000000000222, 0.01469999999999999953 ) ) ;
#32 =( GEOMETRIC_REPRESENTATION_CONTEXT ( 3 ) GLOBAL_UNCERTAINTY_ASSIGNED_CONTEXT ( ( #82 ) ) GLOBAL_UNIT_ASSIGNED_CONTEXT ( ( #92, #175, #96 ) ) REPRESENTATION_CONTEXT ( 'NONE', 'WORKASPACE' ) );
#33 = FACE_OUTER_BOUND ( 'NONE', #102, .T. ) ;
#34 = ORIENTED_EDGE ( 'NONE', *, *, #13, .F. ) ;
#35 = ORIENTED_EDGE ( 'NONE', *, *, #89, .T. ) ;
#36 = DIRECTION ( 'NONE',  ( 0.0000000000000000000, 0.0000000000000000000, 1.000000000000000000 ) ) ;
#37 = PRODUCT_DEFINITION_CONTEXT ( 'detailed design', #72, 'design' ) ;
#38 = CARTESIAN_POINT ( 'NONE',  ( 300.0000000000000000, 1.500000000000000222, 0.01469999999999999953 ) ) ;
#39 = DIRECTION ( 'NONE',  ( 1.000000000000000000, 0.0000000000000000000, 0.0000000000000000000 ) ) ;
#40 = VECTOR ( 'NONE', #11, 39.37007874015748143 ) ;
#41 = LINE ( 'NONE', #31, #203 ) ;
#42 = LENGTH_MEASURE_WITH_UNIT ( LENGTH_MEASURE( 0.02539999999999999897 ), #127 );
#43 = FACE_OUTER_BOUND ( 'NONE', #205, .T. ) ;
#44 = CARTESIAN_POINT ( 'NONE',  ( 300.0000000000000000, -1.500000000000000222, 0.01469999999999999953 ) ) ;
#45 = EDGE_CURVE ( 'NONE', #50, #184, #207, .T. ) ;
#46 = CARTESIAN_POINT ( 'NONE',  ( -300.0000000000001137, 1.500000000000000222, 0.01469999999999999953 ) ) ;
#47 = SURFACE_STYLE_FILL_AREA ( #197 ) ;
#48 = FACE_OUTER_BOUND ( 'NONE', #122, .T. ) ;
#49 = SURFACE_SIDE_STYLE ('',( #47 ) ) ;
#50 = VERTEX_POINT ( 'NONE', #93 ) ;
#51 = LINE ( 'NONE', #38, #169 ) ;
#52 = ORIENTED_EDGE ( 'NONE', *, *, #45, .T. ) ;
#53 = LENGTH_MEASURE_WITH_UNIT ( LENGTH_MEASURE( 0.02539999999999999897 ), #99 );
#54 = CARTESIAN_POINT ( 'NONE',  ( -300.0000000000001137, -1.500000000000000222, 0.0000000000000000000 ) ) ;
#55 = DIRECTION ( 'NONE',  ( 0.0000000000000000000, 0.0000000000000000000, -1.000000000000000000 ) ) ;
#56 = LINE ( 'NONE', #64, #177 ) ;
#57 = DIRECTION ( 'NONE',  ( -0.0000000000000000000, -1.000000000000000000, -0.0000000000000000000 ) ) ;
#58 = EDGE_CURVE ( 'NONE', #180, #8, #28, .T. ) ;
#59 = CARTESIAN_POINT ( 'NONE',  ( 300.0000000000000000, 1.500000000000000222, 0.0000000000000000000 ) ) ;
#60 = DIMENSIONAL_EXPONENTS ( 1.000000000000000000, 0.0000000000000000000, 0.0000000000000000000, 0.0000000000000000000, 0.0000000000000000000, 0.0000000000000000000, 0.0000000000000000000 ) ;
#61 =( NAMED_UNIT ( * ) SI_UNIT ( $, .STERADIAN. ) SOLID_ANGLE_UNIT ( ) );
#62 = DIRECTION ( 'NONE',  ( 0.0000000000000000000, 1.000000000000000000, 0.0000000000000000000 ) ) ;
#63 = PRODUCT_RELATED_PRODUCT_CATEGORY ( 'part', '', ( #155 ) ) ;
#64 = CARTESIAN_POINT ( 'NONE',  ( -300.0000000000001137, 1.500000000000000222, 0.0000000000000000000 ) ) ;
#65 = VECTOR ( 'NONE', #78, 39.37007874015748143 ) ;
#66 = DIRECTION ( 'NONE',  ( 0.0000000000000000000, 0.0000000000000000000, -1.000000000000000000 ) ) ;
#67 = VERTEX_POINT ( 'NONE', #178 ) ;
#68 = CARTESIAN_POINT ( 'NONE',  ( 300.0000000000000000, -1.500000000000000222, 0.01469999999999999953 ) ) ;
#69 = ORIENTED_EDGE ( 'NONE', *, *, #58, .F. ) ;
#70 = EDGE_CURVE ( 'NONE', #50, #180, #14, .T. ) ;
#71 = VERTEX_POINT ( 'NONE', #193 ) ;
#72 = APPLICATION_CONTEXT ( 'automotive_design' ) ;
#73 = ORIENTED_EDGE ( 'NONE', *, *, #89, .F. ) ;
#74 = ORIENTED_EDGE ( 'NONE', *, *, #109, .F. ) ;
#75 = LINE ( 'NONE', #188, #110 ) ;
#76 = AXIS2_PLACEMENT_3D ( 'NONE', #84, #62, #157 ) ;
#77 = CARTESIAN_POINT ( 'NONE',  ( -300.0000000000001137, -1.500000000000000222, 0.01469999999999999953 ) ) ;
#78 = DIRECTION ( 'NONE',  ( 1.000000000000000000, 0.0000000000000000000, 0.0000000000000000000 ) ) ;
#79 = FACE_OUTER_BOUND ( 'NONE', #98, .T. ) ;
#80 = ADVANCED_FACE ( 'NONE', ( #43 ), #167, .F. ) ;
#81 = FACE_OUTER_BOUND ( 'NONE', #7, .T. ) ;
#82 = UNCERTAINTY_MEASURE_WITH_UNIT (LENGTH_MEASURE( 1.000000000000000082E-05 ), #92, 'distance_accuracy_value', 'NONE');
#83 = CARTESIAN_POINT ( 'NONE',  ( -300.0000000000001137, -1.500000000000000222, 0.01469999999999999953 ) ) ;
#84 = CARTESIAN_POINT ( 'NONE',  ( -300.0000000000001137, -1.500000000000000222, 0.01469999999999999953 ) ) ;
#85 =( GEOMETRIC_REPRESENTATION_CONTEXT ( 3 ) GLOBAL_UNCERTAINTY_ASSIGNED_CONTEXT ( ( #136 ) ) GLOBAL_UNIT_ASSIGNED_CONTEXT ( ( #132, #134, #61 ) ) REPRESENTATION_CONTEXT ( 'NONE', 'WORKASPACE' ) );
#86 = ORIENTED_EDGE ( 'NONE', *, *, #146, .F. ) ;
#87 = ADVANCED_FACE ( 'NONE', ( #208 ), #9, .T. ) ;
#88 = EDGE_LOOP ( 'NONE', ( #34, #164, #69, #4 ) ) ;
#89 = EDGE_CURVE ( 'NONE', #67, #50, #191, .T. ) ;
#90 = ORIENTED_EDGE ( 'NONE', *, *, #70, .F. ) ;
#91 = ADVANCED_BREP_SHAPE_REPRESENTATION ( 'CS3-50', ( #145, #140 ), #85 ) ;
#92 =( CONVERSION_BASED_UNIT ( 'INCH', #42 ) LENGTH_UNIT ( ) NAMED_UNIT ( #116 ) );
#93 = CARTESIAN_POINT ( 'NONE',  ( -300.0000000000001137, 1.500000000000000222, 0.01469999999999999953 ) ) ;
#94 = CARTESIAN_POINT ( 'NONE',  ( -300.0000000000001137, -1.500000000000000222, 0.0000000000000000000 ) ) ;
#95 = CARTESIAN_POINT ( 'NONE',  ( 299.9999999999998295, 1.500000000000000222, 0.0000000000000000000 ) ) ;
#96 =( NAMED_UNIT ( * ) SI_UNIT ( $, .STERADIAN. ) SOLID_ANGLE_UNIT ( ) );
#97 = PLANE ( 'NONE',  #10 ) ;
#98 = EDGE_LOOP ( 'NONE', ( #144, #90, #73, #160 ) ) ;
#99 =( LENGTH_UNIT ( ) NAMED_UNIT ( * ) SI_UNIT ( $, .METRE. ) );
#100 = VERTEX_POINT ( 'NONE', #44 ) ;
#101 = DIRECTION ( 'NONE',  ( 0.0000000000000000000, 1.000000000000000000, 0.0000000000000000000 ) ) ;
#102 = EDGE_LOOP ( 'NONE', ( #158, #119, #86, #23 ) ) ;
#103 = SHAPE_DEFINITION_REPRESENTATION ( #16, #91 ) ;
#104 = DIRECTION ( 'NONE',  ( -0.0000000000000000000, -0.0000000000000000000, -1.000000000000000000 ) ) ;
#105 = AXIS2_PLACEMENT_3D ( 'NONE', #170, #17, #36 ) ;
#106 = COLOUR_RGB ( '',0.5372549019607842924, 0.3490196078431372362, 0.3372549019607843368 ) ;
#107 = APPLICATION_PROTOCOL_DEFINITION ( 'draft international standard', 'automotive_design', 1998, #72 ) ;
#108 =( NAMED_UNIT ( * ) SI_UNIT ( $, .STERADIAN. ) SOLID_ANGLE_UNIT ( ) );
#109 = EDGE_CURVE ( 'NONE', #184, #100, #75, .T. ) ;
#110 = VECTOR ( 'NONE', #114, 39.37007874015748143 ) ;
#111 = PRESENTATION_STYLE_ASSIGNMENT (( #179 ) ) ;
#112 = SURFACE_STYLE_FILL_AREA ( #128 ) ;
#113 = DIRECTION ( 'NONE',  ( -0.0000000000000000000, -0.0000000000000000000, -1.000000000000000000 ) ) ;
#114 = DIRECTION ( 'NONE',  ( 1.000000000000000000, 0.0000000000000000000, 0.0000000000000000000 ) ) ;
#115 = PRESENTATION_STYLE_ASSIGNMENT (( #195 ) ) ;
#116 = DIMENSIONAL_EXPONENTS ( 1.000000000000000000, 0.0000000000000000000, 0.0000000000000000000, 0.0000000000000000000, 0.0000000000000000000, 0.0000000000000000000, 0.0000000000000000000 ) ;
#117 = CLOSED_SHELL ( 'NONE', ( #187, #143, #80, #159, #190, #87 ) ) ;
#118 = PLANE ( 'NONE',  #105 ) ;
#119 = ORIENTED_EDGE ( 'NONE', *, *, #2, .F. ) ;
#120 = EDGE_CURVE ( 'NONE', #184, #8, #41, .T. ) ;
#121 = PLANE ( 'NONE',  #76 ) ;
#122 = EDGE_LOOP ( 'NONE', ( #172, #3, #74, #135 ) ) ;
#123 = PRODUCT_DEFINITION_FORMATION_WITH_SPECIFIED_SOURCE ( 'ANY', '', #155, .NOT_KNOWN. ) ;
#124 = EDGE_CURVE ( 'NONE', #8, #71, #147, .T. ) ;
#125 = CARTESIAN_POINT ( 'NONE',  ( 0.0000000000000000000, 0.0000000000000000000, 0.0000000000000000000 ) ) ;
#126 = DIRECTION ( 'NONE',  ( 0.0000000000000000000, -0.0000000000000000000, -1.000000000000000000 ) ) ;
#127 =( LENGTH_UNIT ( ) NAMED_UNIT ( * ) SI_UNIT ( $, .METRE. ) );
#128 = FILL_AREA_STYLE ('',( #149 ) ) ;
#129 = DIRECTION ( 'NONE',  ( 1.000000000000000000, 0.0000000000000000000, 0.0000000000000000000 ) ) ;
#130 = DIRECTION ( 'NONE',  ( 0.0000000000000000000, 0.0000000000000000000, -1.000000000000000000 ) ) ;
#131 = CARTESIAN_POINT ( 'NONE',  ( 299.9999999999998295, 1.500000000000000222, 0.01469999999999999953 ) ) ;
#132 =( CONVERSION_BASED_UNIT ( 'INCH', #137 ) LENGTH_UNIT ( ) NAMED_UNIT ( #60 ) );
#133 = PRESENTATION_LAYER_ASSIGNMENT (  '', '', ( #204 ) ) ;
#134 =( NAMED_UNIT ( * ) PLANE_ANGLE_UNIT ( ) SI_UNIT ( $, .RADIAN. ) );
#135 = ORIENTED_EDGE ( 'NONE', *, *, #120, .T. ) ;
#136 = UNCERTAINTY_MEASURE_WITH_UNIT (LENGTH_MEASURE( 1.000000000000000082E-05 ), #132, 'distance_accuracy_value', 'NONE');
#137 = LENGTH_MEASURE_WITH_UNIT ( LENGTH_MEASURE( 0.02539999999999999897 ), #1 );
#138 =( CONVERSION_BASED_UNIT ( 'INCH', #53 ) LENGTH_UNIT ( ) NAMED_UNIT ( #152 ) );
#139 = MECHANICAL_DESIGN_GEOMETRIC_PRESENTATION_REPRESENTATION (  '', ( #161 ), #32 ) ;
#140 = AXIS2_PLACEMENT_3D ( 'NONE', #125, #202, #39 ) ;
#141 = ORIENTED_EDGE ( 'NONE', *, *, #146, .T. ) ;
#142 =( GEOMETRIC_REPRESENTATION_CONTEXT ( 3 ) GLOBAL_UNCERTAINTY_ASSIGNED_CONTEXT ( ( #153 ) ) GLOBAL_UNIT_ASSIGNED_CONTEXT ( ( #138, #162, #108 ) ) REPRESENTATION_CONTEXT ( 'NONE', 'WORKASPACE' ) );
#143 = ADVANCED_FACE ( 'NONE', ( #79 ), #168, .F. ) ;
#144 = ORIENTED_EDGE ( 'NONE', *, *, #156, .T. ) ;
#145 = MANIFOLD_SOLID_BREP ( 'Boss-Extrude1', #117 ) ;
#146 = EDGE_CURVE ( 'NONE', #100, #67, #21, .T. ) ;
#147 = LINE ( 'NONE', #94, #65 ) ;
#148 = CARTESIAN_POINT ( 'NONE',  ( -300.0000000000001137, 1.500000000000000222, 0.01469999999999999953 ) ) ;
#149 = FILL_AREA_STYLE_COLOUR ( '', #19 ) ;
#150 = PRODUCT_DEFINITION ( 'UNKNOWN', '', #123, #37 ) ;
#151 = VECTOR ( 'NONE', #57, 39.37007874015748143 ) ;
#152 = DIMENSIONAL_EXPONENTS ( 1.000000000000000000, 0.0000000000000000000, 0.0000000000000000000, 0.0000000000000000000, 0.0000000000000000000, 0.0000000000000000000, 0.0000000000000000000 ) ;
#153 = UNCERTAINTY_MEASURE_WITH_UNIT (LENGTH_MEASURE( 1.000000000000000082E-05 ), #138, 'distance_accuracy_value', 'NONE');
#154 = DIRECTION ( 'NONE',  ( -1.000000000000000000, 0.0000000000000000000, -0.0000000000000000000 ) ) ;
#155 = PRODUCT ( 'CS3-50', 'CS3-50', '', ( #5 ) ) ;
#156 = EDGE_CURVE ( 'NONE', #20, #180, #56, .T. ) ;
#157 = DIRECTION ( 'NONE',  ( 0.0000000000000000000, -0.0000000000000000000, 1.000000000000000000 ) ) ;
#158 = ORIENTED_EDGE ( 'NONE', *, *, #13, .T. ) ;
#159 = ADVANCED_FACE ( 'NONE', ( #48 ), #121, .F. ) ;
#160 = ORIENTED_EDGE ( 'NONE', *, *, #2, .T. ) ;
#161 = STYLED_ITEM ( 'NONE', ( #111 ), #145 ) ;
#162 =( NAMED_UNIT ( * ) PLANE_ANGLE_UNIT ( ) SI_UNIT ( $, .RADIAN. ) );
#163 = VECTOR ( 'NONE', #12, 39.37007874015748143 ) ;
#164 = ORIENTED_EDGE ( 'NONE', *, *, #124, .F. ) ;
#165 = CARTESIAN_POINT ( 'NONE',  ( -300.0000000000001137, -1.500000000000000222, 0.01469999999999999953 ) ) ;
#166 = CARTESIAN_POINT ( 'NONE',  ( 300.0000000000000000, -1.500000000000000222, 0.0000000000000000000 ) ) ;
#167 = PLANE ( 'NONE',  #6 ) ;
#168 = PLANE ( 'NONE',  #24 ) ;
#169 = VECTOR ( 'NONE', #104, 39.37007874015748143 ) ;
#170 = CARTESIAN_POINT ( 'NONE',  ( 300.0000000000000000, -1.500000000000000222, 0.01469999999999999953 ) ) ;
#171 = DIRECTION ( 'NONE',  ( -0.0000000000000000000, -0.0000000000000000000, -1.000000000000000000 ) ) ;
#172 = ORIENTED_EDGE ( 'NONE', *, *, #124, .T. ) ;
#173 = MECHANICAL_DESIGN_GEOMETRIC_PRESENTATION_REPRESENTATION (  '', ( #204 ), #142 ) ;
#174 = ORIENTED_EDGE ( 'NONE', *, *, #120, .F. ) ;
#175 =( NAMED_UNIT ( * ) PLANE_ANGLE_UNIT ( ) SI_UNIT ( $, .RADIAN. ) );
#176 = ORIENTED_EDGE ( 'NONE', *, *, #109, .T. ) ;
#177 = VECTOR ( 'NONE', #183, 39.37007874015748143 ) ;
#178 = CARTESIAN_POINT ( 'NONE',  ( 300.0000000000000000, 1.500000000000000222, 0.01469999999999999953 ) ) ;
#179 = SURFACE_STYLE_USAGE ( .BOTH. , #26 ) ;
#180 = VERTEX_POINT ( 'NONE', #185 ) ;
#181 = CARTESIAN_POINT ( 'NONE',  ( -300.0000000000001137, -1.500000000000000222, 0.0000000000000000000 ) ) ;
#182 = EDGE_CURVE ( 'NONE', #100, #71, #199, .T. ) ;
#183 = DIRECTION ( 'NONE',  ( -1.000000000000000000, -0.0000000000000000000, -0.0000000000000000000 ) ) ;
#184 = VERTEX_POINT ( 'NONE', #83 ) ;
#185 = CARTESIAN_POINT ( 'NONE',  ( -300.0000000000001137, 1.500000000000000222, 0.0000000000000000000 ) ) ;
#186 = AXIS2_PLACEMENT_3D ( 'NONE', #95, #130, #27 ) ;
#187 = ADVANCED_FACE ( 'NONE', ( #33 ), #118, .F. ) ;
#188 = CARTESIAN_POINT ( 'NONE',  ( -300.0000000000001137, -1.500000000000000222, 0.01469999999999999953 ) ) ;
#189 = DIRECTION ( 'NONE',  ( 0.0000000000000000000, -1.000000000000000000, 0.0000000000000000000 ) ) ;
#190 = ADVANCED_FACE ( 'NONE', ( #81 ), #97, .F. ) ;
#191 = LINE ( 'NONE', #46, #163 ) ;
#192 = VECTOR ( 'NONE', #101, 39.37007874015748143 ) ;
#193 = CARTESIAN_POINT ( 'NONE',  ( 300.0000000000000000, -1.500000000000000222, 0.0000000000000000000 ) ) ;
#194 = APPLICATION_PROTOCOL_DEFINITION ( 'draft international standard', 'automotive_design', 1998, #29 ) ;
#195 = SURFACE_STYLE_USAGE ( .BOTH. , #49 ) ;
#196 = VECTOR ( 'NONE', #171, 39.37007874015748143 ) ;
#197 = FILL_AREA_STYLE ('',( #211 ) ) ;
#198 = ORIENTED_EDGE ( 'NONE', *, *, #45, .F. ) ;
#199 = LINE ( 'NONE', #18, #196 ) ;
#200 = ORIENTED_EDGE ( 'NONE', *, *, #70, .T. ) ;
#201 = VECTOR ( 'NONE', #30, 39.37007874015748143 ) ;
#202 = DIRECTION ( 'NONE',  ( 0.0000000000000000000, 0.0000000000000000000, 1.000000000000000000 ) ) ;
#203 = VECTOR ( 'NONE', #113, 39.37007874015748143 ) ;
#204 = STYLED_ITEM ( 'NONE', ( #115 ), #91 ) ;
#205 = EDGE_LOOP ( 'NONE', ( #22, #174, #198, #200 ) ) ;
#206 = CARTESIAN_POINT ( 'NONE',  ( -300.0000000000001137, 1.500000000000000222, 0.01469999999999999953 ) ) ;
#207 = LINE ( 'NONE', #165, #25 ) ;
#208 = FACE_OUTER_BOUND ( 'NONE', #88, .T. ) ;
#209 = DIRECTION ( 'NONE',  ( -0.0000000000000000000, -1.000000000000000000, -0.0000000000000000000 ) ) ;
#210 = LINE ( 'NONE', #166, #40 ) ;
#211 = FILL_AREA_STYLE_COLOUR ( '', #106 ) ;
ENDSEC;
END-ISO-10303-21;
