ISO-10303-21;
HEADER;
FILE_DESCRIPTION (( 'STEP AP214' ),
    '1' );
FILE_NAME ('CS3-100.STEP',
    '2019-07-30T16:37:52',
    ( '' ),
    ( '' ),
    'SwSTEP 2.0',
    'SolidWorks 2019',
    '' );
FILE_SCHEMA (( 'AUTOMOTIVE_DESIGN' ));
ENDSEC;

DATA;
#1 = FACE_OUTER_BOUND ( 'NONE', #37, .T. ) ;
#2 = MECHANICAL_DESIGN_GEOMETRIC_PRESENTATION_REPRESENTATION (  '', ( #115 ), #84 ) ;
#3 = DIRECTION ( 'NONE',  ( -1.000000000000000000, 0.0000000000000000000, 0.0000000000000000000 ) ) ;
#4 = FACE_OUTER_BOUND ( 'NONE', #199, .T. ) ;
#5 = EDGE_CURVE ( 'NONE', #136, #149, #124, .T. ) ;
#6 = STYLED_ITEM ( 'NONE', ( #24 ), #69 ) ;
#7 =( NAMED_UNIT ( * ) SI_UNIT ( $, .STERADIAN. ) SOLID_ANGLE_UNIT ( ) );
#8 = ORIENTED_EDGE ( 'NONE', *, *, #67, .F. ) ;
#9 = VERTEX_POINT ( 'NONE', #108 ) ;
#10 = CARTESIAN_POINT ( 'NONE',  ( -600.0000000000003411, 1.500000000000000222, 0.01469999999999999953 ) ) ;
#11 = VECTOR ( 'NONE', #183, 39.37007874015748143 ) ;
#12 = FILL_AREA_STYLE ('',( #92 ) ) ;
#13 = APPLICATION_PROTOCOL_DEFINITION ( 'draft international standard', 'automotive_design', 1998, #16 ) ;
#14 = DIRECTION ( 'NONE',  ( -1.000000000000000000, -0.0000000000000000000, -0.0000000000000000000 ) ) ;
#15 = DIRECTION ( 'NONE',  ( -1.000000000000000000, 0.0000000000000000000, -0.0000000000000000000 ) ) ;
#16 = APPLICATION_CONTEXT ( 'automotive_design' ) ;
#17 = PLANE ( 'NONE',  #44 ) ;
#18 = CARTESIAN_POINT ( 'NONE',  ( -600.0000000000003411, -1.500000000000000222, 0.0000000000000000000 ) ) ;
#19 = AXIS2_PLACEMENT_3D ( 'NONE', #177, #77, #142 ) ;
#20 = ORIENTED_EDGE ( 'NONE', *, *, #117, .T. ) ;
#21 = DIRECTION ( 'NONE',  ( 0.0000000000000000000, 1.000000000000000000, 0.0000000000000000000 ) ) ;
#22 = ORIENTED_EDGE ( 'NONE', *, *, #5, .F. ) ;
#23 = ORIENTED_EDGE ( 'NONE', *, *, #39, .F. ) ;
#24 = PRESENTATION_STYLE_ASSIGNMENT (( #94 ) ) ;
#25 = PRODUCT ( 'CS3-100', 'CS3-100', '', ( #174 ) ) ;
#26 =( NAMED_UNIT ( * ) PLANE_ANGLE_UNIT ( ) SI_UNIT ( $, .RADIAN. ) );
#27 = LINE ( 'NONE', #175, #65 ) ;
#28 = CARTESIAN_POINT ( 'NONE',  ( 599.9999999999997726, -1.500000000000000222, 0.01469999999999999953 ) ) ;
#29 = LINE ( 'NONE', #10, #150 ) ;
#30 = DIRECTION ( 'NONE',  ( -0.0000000000000000000, -1.000000000000000000, -0.0000000000000000000 ) ) ;
#31 = CARTESIAN_POINT ( 'NONE',  ( 599.9999999999997726, -1.500000000000000222, 0.01469999999999999953 ) ) ;
#32 = PLANE ( 'NONE',  #139 ) ;
#33 = ORIENTED_EDGE ( 'NONE', *, *, #74, .T. ) ;
#34 = PLANE ( 'NONE',  #90 ) ;
#35 = ORIENTED_EDGE ( 'NONE', *, *, #182, .F. ) ;
#36 = DIRECTION ( 'NONE',  ( 0.0000000000000000000, 0.0000000000000000000, 1.000000000000000000 ) ) ;
#37 = EDGE_LOOP ( 'NONE', ( #138, #8, #38, #56 ) ) ;
#38 = ORIENTED_EDGE ( 'NONE', *, *, #102, .F. ) ;
#39 = EDGE_CURVE ( 'NONE', #88, #118, #27, .T. ) ;
#40 = DIRECTION ( 'NONE',  ( -0.0000000000000000000, -1.000000000000000000, -0.0000000000000000000 ) ) ;
#41 =( CONVERSION_BASED_UNIT ( 'INCH', #57 ) LENGTH_UNIT ( ) NAMED_UNIT ( #131 ) );
#42 = DIRECTION ( 'NONE',  ( -0.0000000000000000000, -0.0000000000000000000, -1.000000000000000000 ) ) ;
#43 = FACE_OUTER_BOUND ( 'NONE', #165, .T. ) ;
#44 = AXIS2_PLACEMENT_3D ( 'NONE', #119, #109, #45 ) ;
#45 = DIRECTION ( 'NONE',  ( 0.0000000000000000000, -0.0000000000000000000, 1.000000000000000000 ) ) ;
#46 = CARTESIAN_POINT ( 'NONE',  ( 599.9999999999997726, -1.500000000000000222, 0.01469999999999999953 ) ) ;
#47 = PLANE ( 'NONE',  #83 ) ;
#48 = ADVANCED_BREP_SHAPE_REPRESENTATION ( 'CS3-100', ( #69, #91 ), #159 ) ;
#49 = EDGE_CURVE ( 'NONE', #9, #118, #78, .T. ) ;
#50 = ORIENTED_EDGE ( 'NONE', *, *, #102, .T. ) ;
#51 = VECTOR ( 'NONE', #98, 39.37007874015748143 ) ;
#52 = COLOUR_RGB ( '',0.5372549019607842924, 0.3490196078431372362, 0.3372549019607843368 ) ;
#53 = EDGE_LOOP ( 'NONE', ( #20, #86, #203, #169 ) ) ;
#54 = DIMENSIONAL_EXPONENTS ( 1.000000000000000000, 0.0000000000000000000, 0.0000000000000000000, 0.0000000000000000000, 0.0000000000000000000, 0.0000000000000000000, 0.0000000000000000000 ) ;
#55 = FILL_AREA_STYLE ('',( #72 ) ) ;
#56 = ORIENTED_EDGE ( 'NONE', *, *, #5, .T. ) ;
#57 = LENGTH_MEASURE_WITH_UNIT ( LENGTH_MEASURE( 0.02539999999999999897 ), #208 );
#58 = EDGE_LOOP ( 'NONE', ( #132, #100, #33, #50 ) ) ;
#59 = SURFACE_STYLE_FILL_AREA ( #55 ) ;
#60 = ORIENTED_EDGE ( 'NONE', *, *, #188, .T. ) ;
#61 = PRODUCT_DEFINITION_FORMATION_WITH_SPECIFIED_SOURCE ( 'ANY', '', #25, .NOT_KNOWN. ) ;
#62 = PLANE ( 'NONE',  #19 ) ;
#63 = EDGE_CURVE ( 'NONE', #9, #122, #29, .T. ) ;
#64 = CARTESIAN_POINT ( 'NONE',  ( -600.0000000000003411, -1.500000000000000222, 0.01469999999999999953 ) ) ;
#65 = VECTOR ( 'NONE', #154, 39.37007874015748143 ) ;
#66 = CARTESIAN_POINT ( 'NONE',  ( -600.0000000000003411, 1.500000000000000222, 0.01469999999999999953 ) ) ;
#67 = EDGE_CURVE ( 'NONE', #201, #88, #107, .T. ) ;
#68 = LINE ( 'NONE', #64, #166 ) ;
#69 = MANIFOLD_SOLID_BREP ( 'Boss-Extrude1', #103 ) ;
#70 = FACE_OUTER_BOUND ( 'NONE', #53, .T. ) ;
#71 = VERTEX_POINT ( 'NONE', #125 ) ;
#72 = FILL_AREA_STYLE_COLOUR ( '', #52 ) ;
#73 = AXIS2_PLACEMENT_3D ( 'NONE', #46, #3, #168 ) ;
#74 = EDGE_CURVE ( 'NONE', #122, #136, #106, .T. ) ;
#75 = SURFACE_STYLE_USAGE ( .BOTH. , #204 ) ;
#76 = APPLICATION_CONTEXT ( 'automotive_design' ) ;
#77 = DIRECTION ( 'NONE',  ( 1.000000000000000000, 0.0000000000000000000, 0.0000000000000000000 ) ) ;
#78 = LINE ( 'NONE', #178, #95 ) ;
#79 = ADVANCED_FACE ( 'NONE', ( #105 ), #62, .F. ) ;
#80 = LINE ( 'NONE', #81, #134 ) ;
#81 = CARTESIAN_POINT ( 'NONE',  ( -600.0000000000003411, -1.500000000000000222, 0.0000000000000000000 ) ) ;
#82 = ADVANCED_FACE ( 'NONE', ( #4 ), #32, .T. ) ;
#83 = AXIS2_PLACEMENT_3D ( 'NONE', #133, #113, #200 ) ;
#84 =( GEOMETRIC_REPRESENTATION_CONTEXT ( 3 ) GLOBAL_UNCERTAINTY_ASSIGNED_CONTEXT ( ( #130 ) ) GLOBAL_UNIT_ASSIGNED_CONTEXT ( ( #41, #26, #170 ) ) REPRESENTATION_CONTEXT ( 'NONE', 'WORKASPACE' ) );
#85 = CARTESIAN_POINT ( 'NONE',  ( 599.9999999999997726, 1.500000000000000222, 0.0000000000000000000 ) ) ;
#86 = ORIENTED_EDGE ( 'NONE', *, *, #188, .F. ) ;
#87 =( LENGTH_UNIT ( ) NAMED_UNIT ( * ) SI_UNIT ( $, .METRE. ) );
#88 = VERTEX_POINT ( 'NONE', #111 ) ;
#89 = DIRECTION ( 'NONE',  ( -0.0000000000000000000, -0.0000000000000000000, -1.000000000000000000 ) ) ;
#90 = AXIS2_PLACEMENT_3D ( 'NONE', #66, #101, #162 ) ;
#91 = AXIS2_PLACEMENT_3D ( 'NONE', #202, #36, #157 ) ;
#92 = FILL_AREA_STYLE_COLOUR ( '', #185 ) ;
#93 = ADVANCED_FACE ( 'NONE', ( #1 ), #17, .F. ) ;
#94 = SURFACE_STYLE_USAGE ( .BOTH. , #140 ) ;
#95 = VECTOR ( 'NONE', #89, 39.37007874015748143 ) ;
#96 = FACE_OUTER_BOUND ( 'NONE', #58, .T. ) ;
#97 = CARTESIAN_POINT ( 'NONE',  ( -600.0000000000003411, 1.500000000000000222, 0.01469999999999999953 ) ) ;
#98 = DIRECTION ( 'NONE',  ( -0.0000000000000000000, -0.0000000000000000000, -1.000000000000000000 ) ) ;
#99 = VECTOR ( 'NONE', #40, 39.37007874015748143 ) ;
#100 = ORIENTED_EDGE ( 'NONE', *, *, #63, .T. ) ;
#101 = DIRECTION ( 'NONE',  ( 0.0000000000000000000, -1.000000000000000000, 0.0000000000000000000 ) ) ;
#102 = EDGE_CURVE ( 'NONE', #136, #201, #68, .T. ) ;
#103 = CLOSED_SHELL ( 'NONE', ( #104, #137, #79, #93, #210, #82 ) ) ;
#104 = ADVANCED_FACE ( 'NONE', ( #43 ), #135, .F. ) ;
#105 = FACE_OUTER_BOUND ( 'NONE', #206, .T. ) ;
#106 = LINE ( 'NONE', #193, #99 ) ;
#107 = LINE ( 'NONE', #28, #207 ) ;
#108 = CARTESIAN_POINT ( 'NONE',  ( 599.9999999999997726, 1.500000000000000222, 0.01469999999999999953 ) ) ;
#109 = DIRECTION ( 'NONE',  ( 0.0000000000000000000, 1.000000000000000000, 0.0000000000000000000 ) ) ;
#110 =( GEOMETRIC_REPRESENTATION_CONTEXT ( 3 ) GLOBAL_UNCERTAINTY_ASSIGNED_CONTEXT ( ( #116 ) ) GLOBAL_UNIT_ASSIGNED_CONTEXT ( ( #155, #158, #173 ) ) REPRESENTATION_CONTEXT ( 'NONE', 'WORKASPACE' ) );
#111 = CARTESIAN_POINT ( 'NONE',  ( 599.9999999999997726, -1.500000000000000222, 0.0000000000000000000 ) ) ;
#112 = LINE ( 'NONE', #196, #176 ) ;
#113 = DIRECTION ( 'NONE',  ( 0.0000000000000000000, 0.0000000000000000000, -1.000000000000000000 ) ) ;
#114 = VECTOR ( 'NONE', #42, 39.37007874015748143 ) ;
#115 = STYLED_ITEM ( 'NONE', ( #190 ), #48 ) ;
#116 = UNCERTAINTY_MEASURE_WITH_UNIT (LENGTH_MEASURE( 1.000000000000000082E-05 ), #155, 'distance_accuracy_value', 'NONE');
#117 = EDGE_CURVE ( 'NONE', #118, #71, #127, .T. ) ;
#118 = VERTEX_POINT ( 'NONE', #85 ) ;
#119 = CARTESIAN_POINT ( 'NONE',  ( -600.0000000000003411, -1.500000000000000222, 0.01469999999999999953 ) ) ;
#120 = ORIENTED_EDGE ( 'NONE', *, *, #49, .F. ) ;
#121 = SHAPE_DEFINITION_REPRESENTATION ( #123, #48 ) ;
#122 = VERTEX_POINT ( 'NONE', #97 ) ;
#123 = PRODUCT_DEFINITION_SHAPE ( 'NONE', 'NONE',  #156 ) ;
#124 = LINE ( 'NONE', #126, #114 ) ;
#125 = CARTESIAN_POINT ( 'NONE',  ( -600.0000000000003411, 1.500000000000000222, 0.0000000000000000000 ) ) ;
#126 = CARTESIAN_POINT ( 'NONE',  ( -600.0000000000003411, -1.500000000000000222, 0.01469999999999999953 ) ) ;
#127 = LINE ( 'NONE', #148, #11 ) ;
#128 = CARTESIAN_POINT ( 'NONE',  ( -600.0000000000003411, -1.500000000000000222, 0.01469999999999999953 ) ) ;
#129 = LINE ( 'NONE', #181, #51 ) ;
#130 = UNCERTAINTY_MEASURE_WITH_UNIT (LENGTH_MEASURE( 1.000000000000000082E-05 ), #41, 'distance_accuracy_value', 'NONE');
#131 = DIMENSIONAL_EXPONENTS ( 1.000000000000000000, 0.0000000000000000000, 0.0000000000000000000, 0.0000000000000000000, 0.0000000000000000000, 0.0000000000000000000, 0.0000000000000000000 ) ;
#132 = ORIENTED_EDGE ( 'NONE', *, *, #198, .T. ) ;
#133 = CARTESIAN_POINT ( 'NONE',  ( 599.9999999999995453, 1.500000000000000222, 0.01469999999999999953 ) ) ;
#134 = VECTOR ( 'NONE', #194, 39.37007874015748143 ) ;
#135 = PLANE ( 'NONE',  #73 ) ;
#136 = VERTEX_POINT ( 'NONE', #128 ) ;
#137 = ADVANCED_FACE ( 'NONE', ( #70 ), #34, .F. ) ;
#138 = ORIENTED_EDGE ( 'NONE', *, *, #147, .T. ) ;
#139 = AXIS2_PLACEMENT_3D ( 'NONE', #143, #146, #15 ) ;
#140 = SURFACE_SIDE_STYLE ('',( #211 ) ) ;
#141 =( LENGTH_UNIT ( ) NAMED_UNIT ( * ) SI_UNIT ( $, .METRE. ) );
#142 = DIRECTION ( 'NONE',  ( 0.0000000000000000000, 0.0000000000000000000, -1.000000000000000000 ) ) ;
#143 = CARTESIAN_POINT ( 'NONE',  ( 599.9999999999995453, 1.500000000000000222, 0.0000000000000000000 ) ) ;
#144 = VECTOR ( 'NONE', #30, 39.37007874015748143 ) ;
#145 = PRESENTATION_LAYER_ASSIGNMENT (  '', '', ( #115 ) ) ;
#146 = DIRECTION ( 'NONE',  ( 0.0000000000000000000, 0.0000000000000000000, -1.000000000000000000 ) ) ;
#147 = EDGE_CURVE ( 'NONE', #149, #88, #80, .T. ) ;
#148 = CARTESIAN_POINT ( 'NONE',  ( -600.0000000000003411, 1.500000000000000222, 0.0000000000000000000 ) ) ;
#149 = VERTEX_POINT ( 'NONE', #18 ) ;
#150 = VECTOR ( 'NONE', #14, 39.37007874015748143 ) ;
#151 = APPLICATION_PROTOCOL_DEFINITION ( 'draft international standard', 'automotive_design', 1998, #76 ) ;
#152 = ORIENTED_EDGE ( 'NONE', *, *, #39, .T. ) ;
#153 = ORIENTED_EDGE ( 'NONE', *, *, #147, .F. ) ;
#154 = DIRECTION ( 'NONE',  ( 0.0000000000000000000, 1.000000000000000000, 0.0000000000000000000 ) ) ;
#155 =( CONVERSION_BASED_UNIT ( 'INCH', #209 ) LENGTH_UNIT ( ) NAMED_UNIT ( #197 ) );
#156 = PRODUCT_DEFINITION ( 'UNKNOWN', '', #61, #167 ) ;
#157 = DIRECTION ( 'NONE',  ( 1.000000000000000000, 0.0000000000000000000, 0.0000000000000000000 ) ) ;
#158 =( NAMED_UNIT ( * ) PLANE_ANGLE_UNIT ( ) SI_UNIT ( $, .RADIAN. ) );
#159 =( GEOMETRIC_REPRESENTATION_CONTEXT ( 3 ) GLOBAL_UNCERTAINTY_ASSIGNED_CONTEXT ( ( #163 ) ) GLOBAL_UNIT_ASSIGNED_CONTEXT ( ( #160, #161, #7 ) ) REPRESENTATION_CONTEXT ( 'NONE', 'WORKASPACE' ) );
#160 =( CONVERSION_BASED_UNIT ( 'INCH', #164 ) LENGTH_UNIT ( ) NAMED_UNIT ( #54 ) );
#161 =( NAMED_UNIT ( * ) PLANE_ANGLE_UNIT ( ) SI_UNIT ( $, .RADIAN. ) );
#162 = DIRECTION ( 'NONE',  ( 0.0000000000000000000, -0.0000000000000000000, -1.000000000000000000 ) ) ;
#163 = UNCERTAINTY_MEASURE_WITH_UNIT (LENGTH_MEASURE( 1.000000000000000082E-05 ), #160, 'distance_accuracy_value', 'NONE');
#164 = LENGTH_MEASURE_WITH_UNIT ( LENGTH_MEASURE( 0.02539999999999999897 ), #87 );
#165 = EDGE_LOOP ( 'NONE', ( #152, #120, #184, #171 ) ) ;
#166 = VECTOR ( 'NONE', #186, 39.37007874015748143 ) ;
#167 = PRODUCT_DEFINITION_CONTEXT ( 'detailed design', #16, 'design' ) ;
#168 = DIRECTION ( 'NONE',  ( 0.0000000000000000000, 0.0000000000000000000, 1.000000000000000000 ) ) ;
#169 = ORIENTED_EDGE ( 'NONE', *, *, #49, .T. ) ;
#170 =( NAMED_UNIT ( * ) SI_UNIT ( $, .STERADIAN. ) SOLID_ANGLE_UNIT ( ) );
#171 = ORIENTED_EDGE ( 'NONE', *, *, #67, .T. ) ;
#172 = PRODUCT_RELATED_PRODUCT_CATEGORY ( 'part', '', ( #25 ) ) ;
#173 =( NAMED_UNIT ( * ) SI_UNIT ( $, .STERADIAN. ) SOLID_ANGLE_UNIT ( ) );
#174 = PRODUCT_CONTEXT ( 'NONE', #76, 'mechanical' ) ;
#175 = CARTESIAN_POINT ( 'NONE',  ( 599.9999999999997726, -1.500000000000000222, 0.0000000000000000000 ) ) ;
#176 = VECTOR ( 'NONE', #21, 39.37007874015748143 ) ;
#177 = CARTESIAN_POINT ( 'NONE',  ( -600.0000000000003411, -1.500000000000000222, 0.01469999999999999953 ) ) ;
#178 = CARTESIAN_POINT ( 'NONE',  ( 599.9999999999997726, 1.500000000000000222, 0.01469999999999999953 ) ) ;
#179 = MECHANICAL_DESIGN_GEOMETRIC_PRESENTATION_REPRESENTATION (  '', ( #6 ), #110 ) ;
#180 = CARTESIAN_POINT ( 'NONE',  ( -600.0000000000003411, -1.500000000000000222, 0.0000000000000000000 ) ) ;
#181 = CARTESIAN_POINT ( 'NONE',  ( -600.0000000000003411, 1.500000000000000222, 0.01469999999999999953 ) ) ;
#182 = EDGE_CURVE ( 'NONE', #71, #149, #195, .T. ) ;
#183 = DIRECTION ( 'NONE',  ( -1.000000000000000000, -0.0000000000000000000, -0.0000000000000000000 ) ) ;
#184 = ORIENTED_EDGE ( 'NONE', *, *, #198, .F. ) ;
#185 = COLOUR_RGB ( '',0.5372549019607842924, 0.3490196078431372362, 0.3372549019607843368 ) ;
#186 = DIRECTION ( 'NONE',  ( 1.000000000000000000, 0.0000000000000000000, 0.0000000000000000000 ) ) ;
#187 = ORIENTED_EDGE ( 'NONE', *, *, #74, .F. ) ;
#188 = EDGE_CURVE ( 'NONE', #122, #71, #129, .T. ) ;
#189 = ORIENTED_EDGE ( 'NONE', *, *, #182, .T. ) ;
#190 = PRESENTATION_STYLE_ASSIGNMENT (( #75 ) ) ;
#191 = DIRECTION ( 'NONE',  ( -0.0000000000000000000, -0.0000000000000000000, -1.000000000000000000 ) ) ;
#192 = PRESENTATION_LAYER_ASSIGNMENT (  '', '', ( #6 ) ) ;
#193 = CARTESIAN_POINT ( 'NONE',  ( -600.0000000000003411, -1.500000000000000222, 0.01469999999999999953 ) ) ;
#194 = DIRECTION ( 'NONE',  ( 1.000000000000000000, 0.0000000000000000000, 0.0000000000000000000 ) ) ;
#195 = LINE ( 'NONE', #180, #144 ) ;
#196 = CARTESIAN_POINT ( 'NONE',  ( 599.9999999999997726, -1.500000000000000222, 0.01469999999999999953 ) ) ;
#197 = DIMENSIONAL_EXPONENTS ( 1.000000000000000000, 0.0000000000000000000, 0.0000000000000000000, 0.0000000000000000000, 0.0000000000000000000, 0.0000000000000000000, 0.0000000000000000000 ) ;
#198 = EDGE_CURVE ( 'NONE', #201, #9, #112, .T. ) ;
#199 = EDGE_LOOP ( 'NONE', ( #23, #153, #35, #205 ) ) ;
#200 = DIRECTION ( 'NONE',  ( -1.000000000000000000, 0.0000000000000000000, -0.0000000000000000000 ) ) ;
#201 = VERTEX_POINT ( 'NONE', #31 ) ;
#202 = CARTESIAN_POINT ( 'NONE',  ( 0.0000000000000000000, 0.0000000000000000000, 0.0000000000000000000 ) ) ;
#203 = ORIENTED_EDGE ( 'NONE', *, *, #63, .F. ) ;
#204 = SURFACE_SIDE_STYLE ('',( #59 ) ) ;
#205 = ORIENTED_EDGE ( 'NONE', *, *, #117, .F. ) ;
#206 = EDGE_LOOP ( 'NONE', ( #189, #22, #187, #60 ) ) ;
#207 = VECTOR ( 'NONE', #191, 39.37007874015748143 ) ;
#208 =( LENGTH_UNIT ( ) NAMED_UNIT ( * ) SI_UNIT ( $, .METRE. ) );
#209 = LENGTH_MEASURE_WITH_UNIT ( LENGTH_MEASURE( 0.02539999999999999897 ), #141 );
#210 = ADVANCED_FACE ( 'NONE', ( #96 ), #47, .F. ) ;
#211 = SURFACE_STYLE_FILL_AREA ( #12 ) ;
ENDSEC;
END-ISO-10303-21;
