ISO-10303-21;
HEADER;
FILE_DESCRIPTION (( 'STEP AP214' ),
    '1' );
FILE_NAME ('CS112-100.STEP',
    '2019-07-30T16:36:30',
    ( '' ),
    ( '' ),
    'SwSTEP 2.0',
    'SolidWorks 2019',
    '' );
FILE_SCHEMA (( 'AUTOMOTIVE_DESIGN' ));
ENDSEC;

DATA;
#1 = LINE ( 'NONE', #198, #97 ) ;
#2 = ORIENTED_EDGE ( 'NONE', *, *, #49, .F. ) ;
#3 = DIRECTION ( 'NONE',  ( 0.0000000000000000000, 0.0000000000000000000, -1.000000000000000000 ) ) ;
#4 = EDGE_CURVE ( 'NONE', #159, #44, #1, .T. ) ;
#5 = CARTESIAN_POINT ( 'NONE',  ( -600.0000000000002274, 0.7500000000000002220, 0.01469999999999999953 ) ) ;
#6 = DIRECTION ( 'NONE',  ( 0.0000000000000000000, 0.0000000000000000000, -1.000000000000000000 ) ) ;
#7 = EDGE_CURVE ( 'NONE', #192, #62, #98, .T. ) ;
#8 = LINE ( 'NONE', #106, #33 ) ;
#9 =( CONVERSION_BASED_UNIT ( 'INCH', #209 ) LENGTH_UNIT ( ) NAMED_UNIT ( #180 ) );
#10 = EDGE_CURVE ( 'NONE', #44, #144, #17, .T. ) ;
#11 = CARTESIAN_POINT ( 'NONE',  ( -600.0000000000002274, 0.7500000000000002220, 0.01469999999999999953 ) ) ;
#12 = VERTEX_POINT ( 'NONE', #183 ) ;
#13 = AXIS2_PLACEMENT_3D ( 'NONE', #139, #138, #123 ) ;
#14 = ORIENTED_EDGE ( 'NONE', *, *, #4, .F. ) ;
#15 = CARTESIAN_POINT ( 'NONE',  ( -600.0000000000002274, 0.7500000000000002220, 0.0000000000000000000 ) ) ;
#16 = PRODUCT_DEFINITION_CONTEXT ( 'detailed design', #55, 'design' ) ;
#17 = LINE ( 'NONE', #196, #20 ) ;
#18 = CARTESIAN_POINT ( 'NONE',  ( 600.0000000000000000, -0.7499999999999998890, 0.01469999999999999953 ) ) ;
#19 = PLANE ( 'NONE',  #120 ) ;
#20 = VECTOR ( 'NONE', #115, 39.37007874015748143 ) ;
#21 = LINE ( 'NONE', #188, #133 ) ;
#22 = AXIS2_PLACEMENT_3D ( 'NONE', #112, #127, #190 ) ;
#23 = DIRECTION ( 'NONE',  ( 0.0000000000000000000, 0.0000000000000000000, 1.000000000000000000 ) ) ;
#24 = ORIENTED_EDGE ( 'NONE', *, *, #181, .T. ) ;
#25 = FACE_OUTER_BOUND ( 'NONE', #92, .T. ) ;
#26 = ORIENTED_EDGE ( 'NONE', *, *, #7, .T. ) ;
#27 = CARTESIAN_POINT ( 'NONE',  ( 600.0000000000000000, -0.7499999999999998890, 0.01469999999999999953 ) ) ;
#28 = ORIENTED_EDGE ( 'NONE', *, *, #100, .T. ) ;
#29 = SHAPE_DEFINITION_REPRESENTATION ( #160, #142 ) ;
#30 = ORIENTED_EDGE ( 'NONE', *, *, #78, .T. ) ;
#31 = VERTEX_POINT ( 'NONE', #15 ) ;
#32 = DIRECTION ( 'NONE',  ( -1.000000000000000000, 0.0000000000000000000, -0.0000000000000000000 ) ) ;
#33 = VECTOR ( 'NONE', #137, 39.37007874015748143 ) ;
#34 = CARTESIAN_POINT ( 'NONE',  ( 600.0000000000000000, 0.7500000000000002220, 0.01469999999999999953 ) ) ;
#35 = DIRECTION ( 'NONE',  ( 0.0000000000000000000, 0.0000000000000000000, -1.000000000000000000 ) ) ;
#36 =( NAMED_UNIT ( * ) PLANE_ANGLE_UNIT ( ) SI_UNIT ( $, .RADIAN. ) );
#37 = ADVANCED_FACE ( 'NONE', ( #47 ), #84, .F. ) ;
#38 = SURFACE_SIDE_STYLE ('',( #63 ) ) ;
#39 = EDGE_CURVE ( 'NONE', #12, #31, #21, .T. ) ;
#40 = ORIENTED_EDGE ( 'NONE', *, *, #143, .T. ) ;
#41 = FILL_AREA_STYLE ('',( #152 ) ) ;
#42 = EDGE_LOOP ( 'NONE', ( #24, #185, #146, #210 ) ) ;
#43 = LINE ( 'NONE', #173, #170 ) ;
#44 = VERTEX_POINT ( 'NONE', #34 ) ;
#45 = PRODUCT_CONTEXT ( 'NONE', #168, 'mechanical' ) ;
#46 = VECTOR ( 'NONE', #109, 39.37007874015748143 ) ;
#47 = FACE_OUTER_BOUND ( 'NONE', #42, .T. ) ;
#48 = CARTESIAN_POINT ( 'NONE',  ( 599.9999999999996589, 0.7500000000000002220, 0.01469999999999999953 ) ) ;
#49 = EDGE_CURVE ( 'NONE', #192, #159, #8, .T. ) ;
#50 = DIRECTION ( 'NONE',  ( 0.0000000000000000000, -0.0000000000000000000, -1.000000000000000000 ) ) ;
#51 = FILL_AREA_STYLE_COLOUR ( '', #129 ) ;
#52 = VECTOR ( 'NONE', #156, 39.37007874015748143 ) ;
#53 = STYLED_ITEM ( 'NONE', ( #207 ), #142 ) ;
#54 =( NAMED_UNIT ( * ) SI_UNIT ( $, .STERADIAN. ) SOLID_ANGLE_UNIT ( ) );
#55 = APPLICATION_CONTEXT ( 'automotive_design' ) ;
#56 = LINE ( 'NONE', #107, #114 ) ;
#57 = UNCERTAINTY_MEASURE_WITH_UNIT (LENGTH_MEASURE( 1.000000000000000082E-05 ), #9, 'distance_accuracy_value', 'NONE');
#58 =( NAMED_UNIT ( * ) PLANE_ANGLE_UNIT ( ) SI_UNIT ( $, .RADIAN. ) );
#59 = PRESENTATION_LAYER_ASSIGNMENT (  '', '', ( #153 ) ) ;
#60 = EDGE_LOOP ( 'NONE', ( #40, #80, #14, #95 ) ) ;
#61 = CARTESIAN_POINT ( 'NONE',  ( -600.0000000000002274, -0.7499999999999998890, 0.01469999999999999953 ) ) ;
#62 = VERTEX_POINT ( 'NONE', #169 ) ;
#63 = SURFACE_STYLE_FILL_AREA ( #41 ) ;
#64 = ORIENTED_EDGE ( 'NONE', *, *, #181, .F. ) ;
#65 = PRODUCT_DEFINITION ( 'UNKNOWN', '', #202, #16 ) ;
#66 = UNCERTAINTY_MEASURE_WITH_UNIT (LENGTH_MEASURE( 1.000000000000000082E-05 ), #74, 'distance_accuracy_value', 'NONE');
#67 = VECTOR ( 'NONE', #122, 39.37007874015748143 ) ;
#68 =( GEOMETRIC_REPRESENTATION_CONTEXT ( 3 ) GLOBAL_UNCERTAINTY_ASSIGNED_CONTEXT ( ( #57 ) ) GLOBAL_UNIT_ASSIGNED_CONTEXT ( ( #9, #208, #126 ) ) REPRESENTATION_CONTEXT ( 'NONE', 'WORKASPACE' ) );
#69 = PRODUCT_RELATED_PRODUCT_CATEGORY ( 'part', '', ( #136 ) ) ;
#70 = CARTESIAN_POINT ( 'NONE',  ( -600.0000000000002274, -0.7499999999999998890, 0.01469999999999999953 ) ) ;
#71 = DIMENSIONAL_EXPONENTS ( 1.000000000000000000, 0.0000000000000000000, 0.0000000000000000000, 0.0000000000000000000, 0.0000000000000000000, 0.0000000000000000000, 0.0000000000000000000 ) ;
#72 = ORIENTED_EDGE ( 'NONE', *, *, #195, .F. ) ;
#73 = DIRECTION ( 'NONE',  ( 0.0000000000000000000, -1.000000000000000000, 0.0000000000000000000 ) ) ;
#74 =( CONVERSION_BASED_UNIT ( 'INCH', #150 ) LENGTH_UNIT ( ) NAMED_UNIT ( #71 ) );
#75 = MANIFOLD_SOLID_BREP ( 'Boss-Extrude1', #116 ) ;
#76 =( NAMED_UNIT ( * ) SI_UNIT ( $, .STERADIAN. ) SOLID_ANGLE_UNIT ( ) );
#77 = MECHANICAL_DESIGN_GEOMETRIC_PRESENTATION_REPRESENTATION (  '', ( #53 ), #68 ) ;
#78 = EDGE_CURVE ( 'NONE', #144, #192, #164, .T. ) ;
#79 =( LENGTH_UNIT ( ) NAMED_UNIT ( * ) SI_UNIT ( $, .METRE. ) );
#80 = ORIENTED_EDGE ( 'NONE', *, *, #100, .F. ) ;
#81 = COLOUR_RGB ( '',0.5372549019607842924, 0.3490196078431372362, 0.3372549019607843368 ) ;
#82 = ORIENTED_EDGE ( 'NONE', *, *, #143, .F. ) ;
#83 = PRESENTATION_LAYER_ASSIGNMENT (  '', '', ( #53 ) ) ;
#84 = PLANE ( 'NONE',  #165 ) ;
#85 = DIRECTION ( 'NONE',  ( 1.000000000000000000, 0.0000000000000000000, 0.0000000000000000000 ) ) ;
#86 = FACE_OUTER_BOUND ( 'NONE', #162, .T. ) ;
#87 = DIRECTION ( 'NONE',  ( -0.0000000000000000000, -0.0000000000000000000, -1.000000000000000000 ) ) ;
#88 = CARTESIAN_POINT ( 'NONE',  ( -600.0000000000002274, -0.7499999999999998890, 0.01469999999999999953 ) ) ;
#89 = ADVANCED_FACE ( 'NONE', ( #149 ), #148, .F. ) ;
#90 = CARTESIAN_POINT ( 'NONE',  ( 600.0000000000000000, -0.7499999999999998890, 0.0000000000000000000 ) ) ;
#91 = VECTOR ( 'NONE', #203, 39.37007874015748143 ) ;
#92 = EDGE_LOOP ( 'NONE', ( #94, #113, #2, #26 ) ) ;
#93 = LINE ( 'NONE', #110, #52 ) ;
#94 = ORIENTED_EDGE ( 'NONE', *, *, #105, .T. ) ;
#95 = ORIENTED_EDGE ( 'NONE', *, *, #96, .T. ) ;
#96 = EDGE_CURVE ( 'NONE', #159, #193, #166, .T. ) ;
#97 = VECTOR ( 'NONE', #155, 39.37007874015748143 ) ;
#98 = LINE ( 'NONE', #70, #175 ) ;
#99 = EDGE_LOOP ( 'NONE', ( #82, #178, #64, #131 ) ) ;
#100 = EDGE_CURVE ( 'NONE', #44, #12, #56, .T. ) ;
#101 = SURFACE_STYLE_USAGE ( .BOTH. , #167 ) ;
#102 = UNCERTAINTY_MEASURE_WITH_UNIT (LENGTH_MEASURE( 1.000000000000000082E-05 ), #191, 'distance_accuracy_value', 'NONE');
#103 = PLANE ( 'NONE',  #211 ) ;
#104 = SURFACE_STYLE_FILL_AREA ( #200 ) ;
#105 = EDGE_CURVE ( 'NONE', #62, #193, #186, .T. ) ;
#106 = CARTESIAN_POINT ( 'NONE',  ( -600.0000000000002274, -0.7499999999999998890, 0.01469999999999999953 ) ) ;
#107 = CARTESIAN_POINT ( 'NONE',  ( 600.0000000000000000, 0.7500000000000002220, 0.01469999999999999953 ) ) ;
#108 =( GEOMETRIC_REPRESENTATION_CONTEXT ( 3 ) GLOBAL_UNCERTAINTY_ASSIGNED_CONTEXT ( ( #66 ) ) GLOBAL_UNIT_ASSIGNED_CONTEXT ( ( #74, #36, #54 ) ) REPRESENTATION_CONTEXT ( 'NONE', 'WORKASPACE' ) );
#109 = DIRECTION ( 'NONE',  ( 0.0000000000000000000, 1.000000000000000000, 0.0000000000000000000 ) ) ;
#110 = CARTESIAN_POINT ( 'NONE',  ( -600.0000000000002274, -0.7499999999999998890, 0.0000000000000000000 ) ) ;
#111 = ORIENTED_EDGE ( 'NONE', *, *, #4, .T. ) ;
#112 = CARTESIAN_POINT ( 'NONE',  ( -600.0000000000002274, -0.7499999999999998890, 0.01469999999999999953 ) ) ;
#113 = ORIENTED_EDGE ( 'NONE', *, *, #96, .F. ) ;
#114 = VECTOR ( 'NONE', #87, 39.37007874015748143 ) ;
#115 = DIRECTION ( 'NONE',  ( -1.000000000000000000, -0.0000000000000000000, -0.0000000000000000000 ) ) ;
#116 = CLOSED_SHELL ( 'NONE', ( #89, #141, #37, #161, #128, #118 ) ) ;
#117 = CARTESIAN_POINT ( 'NONE',  ( -600.0000000000002274, -0.7499999999999998890, 0.01469999999999999953 ) ) ;
#118 = ADVANCED_FACE ( 'NONE', ( #134 ), #103, .T. ) ;
#119 = LINE ( 'NONE', #140, #46 ) ;
#120 = AXIS2_PLACEMENT_3D ( 'NONE', #48, #6, #32 ) ;
#121 =( LENGTH_UNIT ( ) NAMED_UNIT ( * ) SI_UNIT ( $, .METRE. ) );
#122 = DIRECTION ( 'NONE',  ( -0.0000000000000000000, -1.000000000000000000, -0.0000000000000000000 ) ) ;
#123 = DIRECTION ( 'NONE',  ( 0.0000000000000000000, 0.0000000000000000000, 1.000000000000000000 ) ) ;
#124 = PLANE ( 'NONE',  #22 ) ;
#125 = VECTOR ( 'NONE', #204, 39.37007874015748143 ) ;
#126 =( NAMED_UNIT ( * ) SI_UNIT ( $, .STERADIAN. ) SOLID_ANGLE_UNIT ( ) );
#127 = DIRECTION ( 'NONE',  ( 0.0000000000000000000, 1.000000000000000000, 0.0000000000000000000 ) ) ;
#128 = ADVANCED_FACE ( 'NONE', ( #199 ), #19, .F. ) ;
#129 = COLOUR_RGB ( '',0.5372549019607842924, 0.3490196078431372362, 0.3372549019607843368 ) ;
#130 = DIMENSIONAL_EXPONENTS ( 1.000000000000000000, 0.0000000000000000000, 0.0000000000000000000, 0.0000000000000000000, 0.0000000000000000000, 0.0000000000000000000, 0.0000000000000000000 ) ;
#131 = ORIENTED_EDGE ( 'NONE', *, *, #39, .F. ) ;
#132 = ORIENTED_EDGE ( 'NONE', *, *, #39, .T. ) ;
#133 = VECTOR ( 'NONE', #135, 39.37007874015748143 ) ;
#134 = FACE_OUTER_BOUND ( 'NONE', #99, .T. ) ;
#135 = DIRECTION ( 'NONE',  ( -1.000000000000000000, -0.0000000000000000000, -0.0000000000000000000 ) ) ;
#136 = PRODUCT ( 'CS112-100', 'CS112-100', '', ( #45 ) ) ;
#137 = DIRECTION ( 'NONE',  ( 1.000000000000000000, 0.0000000000000000000, 0.0000000000000000000 ) ) ;
#138 = DIRECTION ( 'NONE',  ( -1.000000000000000000, 0.0000000000000000000, 0.0000000000000000000 ) ) ;
#139 = CARTESIAN_POINT ( 'NONE',  ( 600.0000000000000000, -0.7499999999999998890, 0.01469999999999999953 ) ) ;
#140 = CARTESIAN_POINT ( 'NONE',  ( 600.0000000000000000, -0.7499999999999998890, 0.0000000000000000000 ) ) ;
#141 = ADVANCED_FACE ( 'NONE', ( #86 ), #201, .F. ) ;
#142 = ADVANCED_BREP_SHAPE_REPRESENTATION ( 'CS112-100', ( #75, #184 ), #206 ) ;
#143 = EDGE_CURVE ( 'NONE', #193, #12, #119, .T. ) ;
#144 = VERTEX_POINT ( 'NONE', #11 ) ;
#145 = EDGE_LOOP ( 'NONE', ( #111, #157, #30, #176 ) ) ;
#146 = ORIENTED_EDGE ( 'NONE', *, *, #78, .F. ) ;
#147 = DIRECTION ( 'NONE',  ( -1.000000000000000000, 0.0000000000000000000, -0.0000000000000000000 ) ) ;
#148 = PLANE ( 'NONE',  #13 ) ;
#149 = FACE_OUTER_BOUND ( 'NONE', #60, .T. ) ;
#150 = LENGTH_MEASURE_WITH_UNIT ( LENGTH_MEASURE( 0.02539999999999999897 ), #121 );
#151 = SURFACE_STYLE_USAGE ( .BOTH. , #38 ) ;
#152 = FILL_AREA_STYLE_COLOUR ( '', #81 ) ;
#153 = STYLED_ITEM ( 'NONE', ( #189 ), #75 ) ;
#154 =( LENGTH_UNIT ( ) NAMED_UNIT ( * ) SI_UNIT ( $, .METRE. ) );
#155 = DIRECTION ( 'NONE',  ( 0.0000000000000000000, 1.000000000000000000, 0.0000000000000000000 ) ) ;
#156 = DIRECTION ( 'NONE',  ( -0.0000000000000000000, -1.000000000000000000, -0.0000000000000000000 ) ) ;
#157 = ORIENTED_EDGE ( 'NONE', *, *, #10, .T. ) ;
#158 = AXIS2_PLACEMENT_3D ( 'NONE', #5, #73, #50 ) ;
#159 = VERTEX_POINT ( 'NONE', #27 ) ;
#160 = PRODUCT_DEFINITION_SHAPE ( 'NONE', 'NONE',  #65 ) ;
#161 = ADVANCED_FACE ( 'NONE', ( #25 ), #124, .F. ) ;
#162 = EDGE_LOOP ( 'NONE', ( #132, #72, #179, #28 ) ) ;
#163 = DIRECTION ( 'NONE',  ( -0.0000000000000000000, -0.0000000000000000000, -1.000000000000000000 ) ) ;
#164 = LINE ( 'NONE', #88, #67 ) ;
#165 = AXIS2_PLACEMENT_3D ( 'NONE', #117, #85, #35 ) ;
#166 = LINE ( 'NONE', #18, #125 ) ;
#167 = SURFACE_SIDE_STYLE ('',( #104 ) ) ;
#168 = APPLICATION_CONTEXT ( 'automotive_design' ) ;
#169 = CARTESIAN_POINT ( 'NONE',  ( -600.0000000000002274, -0.7499999999999998890, 0.0000000000000000000 ) ) ;
#170 = VECTOR ( 'NONE', #172, 39.37007874015748143 ) ;
#171 = CARTESIAN_POINT ( 'NONE',  ( 599.9999999999996589, 0.7500000000000002220, 0.0000000000000000000 ) ) ;
#172 = DIRECTION ( 'NONE',  ( -0.0000000000000000000, -0.0000000000000000000, -1.000000000000000000 ) ) ;
#173 = CARTESIAN_POINT ( 'NONE',  ( -600.0000000000002274, 0.7500000000000002220, 0.01469999999999999953 ) ) ;
#174 = CARTESIAN_POINT ( 'NONE',  ( 0.0000000000000000000, 0.0000000000000000000, 0.0000000000000000000 ) ) ;
#175 = VECTOR ( 'NONE', #163, 39.37007874015748143 ) ;
#176 = ORIENTED_EDGE ( 'NONE', *, *, #49, .T. ) ;
#177 = APPLICATION_PROTOCOL_DEFINITION ( 'draft international standard', 'automotive_design', 1998, #168 ) ;
#178 = ORIENTED_EDGE ( 'NONE', *, *, #105, .F. ) ;
#179 = ORIENTED_EDGE ( 'NONE', *, *, #10, .F. ) ;
#180 = DIMENSIONAL_EXPONENTS ( 1.000000000000000000, 0.0000000000000000000, 0.0000000000000000000, 0.0000000000000000000, 0.0000000000000000000, 0.0000000000000000000, 0.0000000000000000000 ) ;
#181 = EDGE_CURVE ( 'NONE', #31, #62, #93, .T. ) ;
#182 = APPLICATION_PROTOCOL_DEFINITION ( 'draft international standard', 'automotive_design', 1998, #55 ) ;
#183 = CARTESIAN_POINT ( 'NONE',  ( 600.0000000000000000, 0.7500000000000002220, 0.0000000000000000000 ) ) ;
#184 = AXIS2_PLACEMENT_3D ( 'NONE', #174, #23, #197 ) ;
#185 = ORIENTED_EDGE ( 'NONE', *, *, #7, .F. ) ;
#186 = LINE ( 'NONE', #187, #91 ) ;
#187 = CARTESIAN_POINT ( 'NONE',  ( -600.0000000000002274, -0.7499999999999998890, 0.0000000000000000000 ) ) ;
#188 = CARTESIAN_POINT ( 'NONE',  ( -600.0000000000002274, 0.7500000000000002220, 0.0000000000000000000 ) ) ;
#189 = PRESENTATION_STYLE_ASSIGNMENT (( #101 ) ) ;
#190 = DIRECTION ( 'NONE',  ( 0.0000000000000000000, -0.0000000000000000000, 1.000000000000000000 ) ) ;
#191 =( CONVERSION_BASED_UNIT ( 'INCH', #205 ) LENGTH_UNIT ( ) NAMED_UNIT ( #130 ) );
#192 = VERTEX_POINT ( 'NONE', #61 ) ;
#193 = VERTEX_POINT ( 'NONE', #90 ) ;
#194 = MECHANICAL_DESIGN_GEOMETRIC_PRESENTATION_REPRESENTATION (  '', ( #153 ), #108 ) ;
#195 = EDGE_CURVE ( 'NONE', #144, #31, #43, .T. ) ;
#196 = CARTESIAN_POINT ( 'NONE',  ( -600.0000000000002274, 0.7500000000000002220, 0.01469999999999999953 ) ) ;
#197 = DIRECTION ( 'NONE',  ( 1.000000000000000000, 0.0000000000000000000, 0.0000000000000000000 ) ) ;
#198 = CARTESIAN_POINT ( 'NONE',  ( 600.0000000000000000, -0.7499999999999998890, 0.01469999999999999953 ) ) ;
#199 = FACE_OUTER_BOUND ( 'NONE', #145, .T. ) ;
#200 = FILL_AREA_STYLE ('',( #51 ) ) ;
#201 = PLANE ( 'NONE',  #158 ) ;
#202 = PRODUCT_DEFINITION_FORMATION_WITH_SPECIFIED_SOURCE ( 'ANY', '', #136, .NOT_KNOWN. ) ;
#203 = DIRECTION ( 'NONE',  ( 1.000000000000000000, 0.0000000000000000000, 0.0000000000000000000 ) ) ;
#204 = DIRECTION ( 'NONE',  ( -0.0000000000000000000, -0.0000000000000000000, -1.000000000000000000 ) ) ;
#205 = LENGTH_MEASURE_WITH_UNIT ( LENGTH_MEASURE( 0.02539999999999999897 ), #154 );
#206 =( GEOMETRIC_REPRESENTATION_CONTEXT ( 3 ) GLOBAL_UNCERTAINTY_ASSIGNED_CONTEXT ( ( #102 ) ) GLOBAL_UNIT_ASSIGNED_CONTEXT ( ( #191, #58, #76 ) ) REPRESENTATION_CONTEXT ( 'NONE', 'WORKASPACE' ) );
#207 = PRESENTATION_STYLE_ASSIGNMENT (( #151 ) ) ;
#208 =( NAMED_UNIT ( * ) PLANE_ANGLE_UNIT ( ) SI_UNIT ( $, .RADIAN. ) );
#209 = LENGTH_MEASURE_WITH_UNIT ( LENGTH_MEASURE( 0.02539999999999999897 ), #79 );
#210 = ORIENTED_EDGE ( 'NONE', *, *, #195, .T. ) ;
#211 = AXIS2_PLACEMENT_3D ( 'NONE', #171, #3, #147 ) ;
ENDSEC;
END-ISO-10303-21;
